30 Seconds to Mars - Savior Chords

1st Verse Riff
 
No chord
Standard guitar tuning:
E
A
D
G
B
E
No capo

Intro

Eb:---12---12--12----12--12---12--12--11--11---11----11---11------------------|
Bb:---------------------------------------------------------------------------|
Gb:---------------------------------------------------------------------------|
Db:---------------------------------------------------------------------------|
Ab:---------------------------------------------------------------------------|
Eb:---------------------------------------------------------------------------|

Verse

Eb:----------------------------------------|
Bb:----------------------------------------|
Gb:------9---6---4----------9---6---6------|
Db:--6---9---6---4------6---9---6---6------|
Ab:--6---7---4---2------6---7---4---4------|
Eb:--4------------------4------------------|

Chorus

Eb:--------------------------|
Bb:--------------------------|
Gb:--------------------------|
Db:--2---4---6---9-----------|
Ab:--2---4---6---9-----------|
Eb:--0---2---4---7-----------|

Bridge

Eb:----------------------------------------|
Bb:----------------------------------------|
Gb:-------8--6-------6--4------4--3~-------|
Db:----------------------------------------|
Ab:---6---------------------4--------------|
Eb:-4------------0~------------------------|
Eb:------------------------------------|
Bb:------------------------------------|
Gb:-------8--6-------6--4--------------|
Db:------------------------------------|
Ab:---6---------------------4~---------|
Eb:-4------------0~--------------------|