311 - The Continuous Life Chords

 
No chord
Standard guitar tuning:
E
A
D
G
B
E
No capo

Riff 1

--------
e--------------------------------------------------------------------------
B--------------------------------------------------------------------------
G--8------------------------9-------8--------------------------------------
D--4-----8---------9--------5-------4------8-------9-----5-----------------
A--------4---------5-----------------------4-------5-----5-----------------
E--------------------------------------------------------------------------

Riff 2

-------
e-------------------------------
B-------------------------------
G-------------------------------
D--6--6--8--8--4---4-x-4--------
A--6--6--8--8--4---4-x-4--------
E--4--4--6--6--2---2-x-2--------

Riff 3

-------
e------------------------------------------------------------
B------------------------------------------------------------
G------------------------------------------------------------
D--6--6--4--2--8----------------------------6--6--4--2--1----
A--6--6--4--2--6-----or perhaps, try this:--6--6--4--2--1----
E--4--4--2--0--6----------------------------4--4--2--0-------

Bridge

-------
e----------------------------------------------------------------
B----------------------------------------------------------------
G----------------------------------------------------------------
D--------3---1---------------3---1---------------3---1-----------
A----------------3-----3-------------3-----3-------------3-----3-
E--1-----------------3---1---------------3---1---------------3---
e---------------------------------------------------------------------
B---------------------------------------------------------------------
G---------------------------------------------------------------------
D----3---1---------3---1-----------3---1-------------3---1------------
A-----------2---1----------2---1----------3----3-------------3------3-
E-1------------------------------------------3----1---------------3---
e----------------------------------------------
B----------------------------------------------
G----------------------------------------------
D----3---1-----3-------------------------------
A------------3-----3---------------------------
E-1--------------------------------------------
EndingLyrics/Song Structure: ---> Play Riff 1 (x2) ---> Play Riff 1 over: ---> Play Riff 2 over: ---> Play Riff 3 over: ---> Play Riff 1 (x1) ---> Play Riff 1 over: ---> Play riff 2 over: ---> Play Riff 3 over: ---> Play Bridge ---> Play Ending over: