311 - Transistor Chords

Main Riff
Main Riff
Main Riff
Main Riff
 
No chord
Standard guitar tuning:
E
A
D
G
B
E
No capo
Verse Riff 1:
A--2--4--5--7--4--4----7--4--2--7b7.5---2--4--5--7--4--4--
E--0--2--3--5--2--2----5--2--0--5b5.5---0--2--3--5--2--2--
e--------------------------------------------------------
B--------------------------------------------------------
G--------------------------------------------------------
D--------------------------------------------------------
A--7--4--2--7--4--2--------------------------------------
E--5--2--0--5--2--0--------------------------------------
Verse Riff 2: Chorus Riff 1:
Chorus Riff 2:
Riff 3
-------
e-------------------------------------------------------------
B-------------------------------------------------------------
G-------------------------------------------------------------
D-----------------9--7----------------------------------------
A--5--5--5--5--5--7--5-------5--5--5--5--9--7--9--------------
E--3--3--3--3--3--7--5-------3--3--3--3--7--5--7--------------

Bridge

-------
e------------------------------------------------------------
B------------------------------------------------------------
G------------------------------------------------------------
D------------9--7--------------9--7--------------------------
A---5--5--5--7--5----5--5--5---7--5----5--5--9--7------------
E---3--3--3----------3--3--3-----------3--3--7--5------------
Reggae Part:
Ending
-------
e----------------------------------------------
B----------------------------------------------
G-----------5--5-------------------------------
D---5--5----5--5---3------3-----3------3-------
A---5--5----3--3---3------3-----3------3-------
E---3--3----3--3---1--0---1--0--1--0--1--0-----
e---------------------------------------------
B---------------------------------------------
G-----------5--5------------------------------
D---5--5----5--5---3---3---3--------3---------
A---5--5----3--3---3---3---3--------3---------
E---3--3----3--3---1---1---1---0----1---------
Lyrics/Song Structure: ---> Play Verse Riff 1 over: If you want more beats for your buck there's no luck If you want more beats for your buck there's no luck If you want more beats for your buck there's no luck If you want more beats for your ---> Play Verse Riff 2 over: buck there's no luck, then there's no luck Then again if you came for drama then I can't understand Music critics, music critics Not afraid of a guy who'll tell you he's never been in a mix Been in a mix, been in a mix From the grass roots so big up to our friends Every crew every click and every posse Big up to all the heads not of hypocrisy ---> Play Chorus Riff 1 over: You're a Transistor ---> Play Chorus Riff 2 over: Lightning resistor Conducting to the mother star That's what you ---> Play Riff 3 over: are, yeah heh heh heh heh, yeah heh heh heh heh yeah heh heh heh heh, yeah heh heh heh heh ---> Play Verse Riff 1 over: Renegade sound system Three Eleven Renegade sound system Three Eleven Renegade sound system Three Eleven Renegade sound system ---> Play Verse Riff 2 over: Three Eleven, Three Eleven Brothers from another planet and here once again Automatic, automatic wanna take to the universe in a holographic Cosmic remix, cosmic remix, From the mysterious blue planet we can breathe anywhere Underwater, out in space or in L.A. Your polluted air's no problem for these homeys ---> Play Chorus Riff 1 over: You're a Transistor ---> Play Chorus Riff 2 over: Lightning resistor Conducting to the mother star That's what you ---> Play Riff 3 over: are, yeah heh heh heh heh, yeah heh heh heh heh yeah heh heh heh heh, yeah heh heh heh heh ---> Play Bridge (x4) ---> Play Reggae Part (x4) over: You're a Transistor Lightning Resistor Conducting to the Mother Star That's what you ---> Play Ending (x2) over: are, yeah heh heh heh heh, yeah heh heh heh yeah heh heh heh heh, yeah heh heh heh