311 - Tune In Chords

A Riff
B Riff
C Riff
 
No chord
Dropped D guitar tuning
No capo

Riff 1

w/ heavy distortion)
e---------------------------------------------------------------------------
B---------------------------------------------------------------------------
G---------------------------------------------------------------------------
D---------------------------------------------------------------------------
A-3--3--3--5---------------------------3--3--3--5---------------------------
D---------------0--2--3--3--3--2--0------------------2--3--5--5--5--3--2----
e---------------------------------------------------------------------------
B---------------------------------------------------------------------------
G--------------------------------------------------------2-------2----------
D------------------------------------------------------2---2-------2--------
A-3--3--3--5---------------------------3--3--3--5----4-------4-------4------
D---------------0--2--3--3--3--2--0-----------------------------------------

Chorus riff

w/ heavy distortion)
e-------------------------------------------------------------------
B-------------------------------------------------------------------
G-------------------------------------------------------------------
D-------------------------------------------------------------------
A-----------3--2--2--2----------3--2--2--2-------------3--2--2--2---
D--5--5--5----------------5--5----------------5--5--5---------------
e--------------------------------------------------------------
B--------------------------------------------------------------
G--------------------------------------------------------------
D--------------------------------------------------------------
A-------3--2--2--2-------------5--3--3--3----------5--3--3--3--
D-5--5----------------3--3--3----------------3--3--------------
e-------------------------------------------
B-------------------------------------------
G-------------------------------------------
D-------------------------------------------
A----------5--3--3--3----------2--3--1------
D-3--3--3----------------3--5-----------5---

Riff 2

w/ heavy distortion)
e---------------------------------------------------------------------------
B---------------------------------------------------------------------------
G---------------------------------------------------------------------------
D---------------------4--4--4s6---------------------------------------------
A--5--4--5---2--1--2--------------------------------------------------------
D--------------------------------2---2---2----------------------------------

Riff 3

w/ heavy distortion)
e-----------------------------------------------------------------
B-----------------------------------------------------------------
G-----------------------------------------------------------------
D----------------------5--4--5------------------------------------
A--5--4--5---2--1--2-------------2--1--2---5--4--2--0-----------4-
D------------------------------------------------------5--5--5----
e---------------------------------------------------------------------------
B---------------------------------------------------------------------------
G---------------------------------------------------------------------------
D---------------------------------------------------------------------------
A-------------3-6----5-8----------------------------------------------------
D--6--6--6--6------8--------------------------------------------------------
Song Structure: ---> Play Riff 1 (x2) over: ---> Play Chorus Riff (x2) over: ---> Play Riff 2 (x4) ---> Play Riff 1 (x2) over: ---> Play Chorus Riff (x2) over: ---> Play Riff 3 (x2) ---> Play Riff 2 (x8) over: