AC/DC - You Shook Me All Night Long Acoustic Chords

 
         
         
         
         
X
3
2
1
3 fr
         
         
         
         
X
1
2
3
4
1
8 fr
         
         
         
         
1
3
4
2
1
1
3 fr
         
         
         
         
X
1
X
3
4
1
5 fr
         
         
         
         
3
2
1
1
1
4
10 fr
         
         
         
         
X
X
1
3
4
3

12 fr
         
         
         
         
X
4
3
1
2
1
3 fr
         
         
         
         
X
         
         
         
         
3
2
4
3 fr
         
         
         
         
1
3
4
2
1
1
         
         
         
         
2
1
3
4
3 fr
         
         
         
         
X
X
3
2
1
1
5 fr
         
         
         
         
X
X
1
3
4
3
7 fr
         
         
         
         
X
4
3
1
2
1

10 fr
         
         
         
         
X
1
2
3
4
X
10 fr
         
         
         
         
X
1
3
3
3
1
12 fr
         
         
         
         
3
2
1
1
1
4
         
         
         
         
X
X
1
3
2
2 fr
         
         
         
         
X
4
3
1
2
1
5 fr
         
         
         
         
X
1
2
3
4
1
5 fr
         
         
         
         
X
1
4
4
4
X
7 fr
         
         
         
         
4
3
1
1
1
X
7 fr
         
         
         
         
3
2
1
1
1
4

10 fr
         
         
         
         
1
3
4
2
1
1
12 fr
         
         
         
         
X
X
1
3
4
3
5 fr
         
         
         
         
X
X
No chord
Standard guitar tuning:
E
A
D
G
B
E
No capo

C0 G3 D2

1 0 3 0 0 2 2 0 0 3 2 0 0 3 0

Intro

G-3C~-C--G-0C-0G-3D-0-3-2---------------| -0~----1-1-0-1-0-3---------------| -0~----0-0-0-0-0-2---------------| -0~----2-2-0-2-0-0---------------| -2~----3-3-2-3-2-0---------------| -3~----0-0-3-0-3-0---------------|

Verse

G G D G D G
-3-3-2-3-2-3--x-x-x-------------|
-0-0-3-0-3-0--x-x-x-------------|
-0-0-2-0-2-0--x-x-x-------------|
-0-0-0-0-0-0--x-x-x-------------|
-2-2-0-2-0-2--x-x-x-------------|
-3-3-0-3-0-3--x-x-x-------------|
C C G C G D
-0-0-3-0-3-2--x-x-x-----------|
-1-1-0-1-0-3--x-x-x-----------|
-0-0-0-0-0-2--x-x-x-----------|
-2-2-0-2-0-0--x-x-x-----------|
-3-3-2-3-2-0--x-x-x-----------|
-0-0-3-0-3-0--x-x-x-----------|
Before Chords

G G D G D G

-3-3-2-3-2-3-----------------| -0-0-3-0-3-0-----------------| -0-0-2-0-2-0-----------------| -0-0-0-0-0-0-----------------| -2-2-0-2-0-2-----------------| -3-3-0-3-0-3-----------------|
C C G C G D
-0-0-3-0-3-2-2-2-------------|
-1-1-0-1-0-3-3-3-------------|
-0-0-0-0-0-2-3-2-------------|
-2-2-0-2-0-0-0-0-------------|
-3-3-2-3-2-0-0-0-------------|
-0-0-3-0-3-0-0-0-------------|
Working On Chords...