After The Fall - Concrete Boots Chords

Main Riff
Main Riff
Main Riff
 
         
         
         
         
X
1
2
3
5 fr
         
         
         
         
1
3
4
2
1
1
2 fr
         
         
         
         
X
1
1
1
4
         
         
         
         
X
X
1
2
2 fr
         
         
         
         
3
2
1
1
1
4
7 fr
         
         
         
         
X
X
1
3
4
3

9 fr
         
         
         
         
X
4
3
1
2
1
12 fr
         
         
         
         
X
1
3
3
3
1
         
         
         
         
3
2
4
3 fr
         
         
         
         
1
3
4
2
1
1
         
         
         
         
2
1
3
4
3 fr
         
         
         
         
X
X
3
2
1
1
5 fr
         
         
         
         
X
X
1
3
4
3
7 fr
         
         
         
         
X
4
3
1
2
1

10 fr
         
         
         
         
X
1
2
3
4
X
10 fr
         
         
         
         
X
1
3
3
3
1
12 fr
         
         
         
         
3
2
1
1
1
4
         
         
         
         
X
X
1
3
2
2 fr
         
         
         
         
X
4
3
1
2
1
5 fr
         
         
         
         
X
1
2
3
4
1
5 fr
         
         
         
         
X
1
4
4
4
X
7 fr
         
         
         
         
4
3
1
1
1
X
7 fr
         
         
         
         
3
2
1
1
1
4

10 fr
         
         
         
         
1
3
4
2
1
1
12 fr
         
         
         
         
X
X
1
3
4
3
5 fr
         
         
         
         
X
X
7 fr
         
         
         
         
1
3
4
2
1
1
         
         
         
         
X
2
1
X
3
         
         
         
         
X
1
4
4
4
X
         
         
         
         
X
1
3
3
3
1
4 fr
         
         
         
         
4
3
1
1
1
X
4 fr
         
         
         
         
3
2
1
1
1
4

9 fr
         
         
         
         
X
X
1
3
4
3
11 fr
         
         
         
         
X
4
3
1
2
1

B

variations
         
         
         
         
X
1
2
3
4
1
6 fr
         
         
         
         
1
3
4
2
1
1
         
         
         
         
X
1
4
4
4
X
         
         
         
         
X
1
X
3
4
1
3 fr
         
         
         
         
3
2
1
1
1
4
8 fr
         
         
         
         
X
X
1
3
4
3

10 fr
         
         
         
         
X
4
3
1
2
1
         
         
         
         
1
3
4
2
1
1
5 fr
         
         
         
         
X
4
3
1
2
1
3 fr
         
         
         
         
X
X
1
2
4
3
         
         
         
         
X
X
3
2
1
1
8 fr
         
         
         
         
X
1
3
3
3
1
10 fr
         
         
         
         
4
3
1
1
1
X

10 fr
         
         
         
         
3
2
1
1
1
4
         
         
         
         
X
3
2
1
3 fr
         
         
         
         
X
1
2
3
4
1
8 fr
         
         
         
         
1
3
4
2
1
1
3 fr
         
         
         
         
X
1
X
3
4
1
5 fr
         
         
         
         
3
2
1
1
1
4
10 fr
         
         
         
         
X
X
1
3
4
3

12 fr
         
         
         
         
X
4
3
1
2
1
3 fr
         
         
         
         
X
No chord
Standard guitar tuning:
E
A
D
G
B
E
No capo

Intro

e|-------------------------------------|
B|-7--7-7-5-5-5-7-5--7-7-7-5-5--5-7-7b-|
G|-------------------------------------|
D|-------------------------------------|
A|-------------------------------------|
D|-------------------------------------|

A A A G A G A G A

e|----------------------------------------------|
B|-7-7-7-5-5--5-7-5--5-5--7-7-7-5-5--5-7-5-7--7-|
G|----------------------------------------------|
D|----------------------------------------------|
A|----------------------------------------------|
D|----------------------------------------------|
e|----------------------------------------------|
B|-7-7-7-5-5--5-7-5--5-5--7-7-7-5-5--5-7-5--5-5-|
G|----------------------------------------------|
D|----------------------------------------------|
A|----------------------------------------------|
D|----------------------------------------------|
e|-------------------------|
B|-7--7-5--5-7--7-5-5--5-5-|
G|-------------------------|
D|-------------------------|
A|-------------------------|
D|-------------------------|
e|----------------------------------------------|
B|-7-7-7-5-5--5-7-5--5-5--7-7-7-5-5--5-7-5--5-5-|
G|----------------------------------------------|
D|----------------------------------------------|
A|----------------------------------------------|
D|----------------------------------------------|

Verse

Have you ever got that dowards Sinking felling And just a touch of human hands Make for helling He watered down amongst The crowd, always lost searching For his own sound

Chorus

e|---------------------------------------------------------------------|
B|---------------------------------------------------------------------|
G|---------------------------------------------------------------------|

D|-8-x-8-x-8-x-8-x-3-x-3-x-3-x-3-x-0-x-0-x-0-x-0-x-10-x-10-x-10-x-10-x-|

A|-8-x-8-x-8-x-8-x-3-x-3-x-3-x-3-x-0-x-0-x-0-x-0-x-10-x-10-x-10-x-10-x-|

D|-8-x-8-x-8-x-8-x-3-x-3-x-3-x-3-x-0-x-0-x-0-x-0-x-10-x-10-x-10-x-10-x-|

e|---------------------------------------------------------------------|
B|---------------------------------------------------------------------|
G|---------------------------------------------------------------------|

D|-8-x-8-x-8-x-8-x-3-x-3-x-3-x-3-x-0-x-0-x-0-x-0-x-10-x-10-x-10-x-10-x-|

A|-8-x-8-x-8-x-8-x-3-x-3-x-3-x-3-x-0-x-0-x-0-x-0-x-10-x-10-x-10-x-10-x-|

D|-8-x-8-x-8-x-8-x-3-x-3-x-3-x-3-x-0-x-0-x-0-x-0-x-10-x-10-x-10-x-10-x-|

e|---|

B|-0-|

G|-0-|

D|-0-|

A|---| D|---|
These concrete boots he wears Make it hard to reach the air
These concrete boots he
Wears
e|-------------------|
B|-------------------|
G|-------------------|
D|-0-0-00-0-00-0-x-0-| palm muted

A|-0-0-00-0-00-0-x-0-|

D|-0-0-00-0-00-0-x-0-|

BThese concrete boFots he wears MaDke it hard to reach tChe air BThese concrete boots he WeFars BThese concrete boFots he wears
D                      C
Make it hard to reach the air
Bb---------------------
These concrete boots he
Wears
e|-------------------|
B|-------------------|
G|-------------------|

D|-0-0-00-0-00-0-x-0-|

A|-0-0-00-0-00-0-x-0-|

D|-0-0-00-0-00-0-x-0-|

Intro

e|-------------------------------------|
B|-7--7-7-5-5-5-7-5--7-7-7-5-5--5-7-7b-|
G|-------------------------------------|
D|-------------------------------------|
A|-------------------------------------|
D|-------------------------------------|

A A A G A G A G A

e|----------------------------------------------|
B|-7-7-7-5-5--5-7-5--5-5--7-7-7-5-5--5-7-5-7--7-|
G|----------------------------------------------|
D|----------------------------------------------|
A|----------------------------------------------|
D|----------------------------------------------|
e|----------------------------------------------|
B|-7-7-7-5-5--5-7-5--5-5--7-7-7-5-5--5-7-5--5-5-|
G|----------------------------------------------|
D|----------------------------------------------|
A|----------------------------------------------|
D|----------------------------------------------|
e|-------------------------|
B|-7--7-5--5-7--7-5-5--5-5-|
G|-------------------------|
D|-------------------------|
A|-------------------------|
D|-------------------------|
e|----------------------------------------------|
B|-7-7-7-5-5--5-7-5--5-5--7-7-7-5-5--5-7-5--5-5-|
G|----------------------------------------------|
D|----------------------------------------------|
A|----------------------------------------------|
D|----------------------------------------------|
2nd Verse And now all the eyes are Facing towards the south Just as narrow words try to Escape his mouth The plastered faces are Painted white, just to keep The inside out of his sight

Chorus

e|---------------------------------------------------------------------|
B|---------------------------------------------------------------------|
G|---------------------------------------------------------------------|

D|-8-x-8-x-8-x-8-x-3-x-3-x-3-x-3-x-0-x-0-x-0-x-0-x-10-x-10-x-10-x-10-x-|

A|-8-x-8-x-8-x-8-x-3-x-3-x-3-x-3-x-0-x-0-x-0-x-0-x-10-x-10-x-10-x-10-x-|

D|-8-x-8-x-8-x-8-x-3-x-3-x-3-x-3-x-0-x-0-x-0-x-0-x-10-x-10-x-10-x-10-x-|

e|---------------------------------------------------------------------|
B|---------------------------------------------------------------------|
G|---------------------------------------------------------------------|

D|-8-x-8-x-8-x-8-x-3-x-3-x-3-x-3-x-0-x-0-x-0-x-0-x-10-x-10-x-10-x-10-x-|

A|-8-x-8-x-8-x-8-x-3-x-3-x-3-x-3-x-0-x-0-x-0-x-0-x-10-x-10-x-10-x-10-x-|

D|-8-x-8-x-8-x-8-x-3-x-3-x-3-x-3-x-0-x-0-x-0-x-0-x-10-x-10-x-10-x-10-x-|

These concrete boots he wears Make it hard to reach the air These concrete boots he wears BThese concrete bFoots he wears MaDke it hard to reach tChe air BThese concrete boots he WDears BThese concrete bFoots he wears
  D                    C
Make it hard to reach the air
Bb---------------------
These concrete boots he
Wears
e|-------------------|
B|-------------------|
G|-------------------|

D|-0-0-00-0-00-0-x-0-|

A|-0-0-00-0-00-0-x-0-|

D|-0-0-00-0-00-0-x-0-|

I don't know the solo as of yet but When I do I will add it to the tab
Palm muted
e|---------------------------------------------|
B|---------------------------------------------|
G|---------------------------------------------|

D|-88888888-33333333-00000000-1010101010101010-|

A|-88888888-33333333-00000000-1010101010101010-|

D|-88888888-33333333-00000000-1010101010101010-|

e|----------------------|
B|----------------------|
D|-88888888-33333333-0--|
A|-88888888-33333333-0--|
D|-88888888-33333333-0--|
The concrete boots he wears Make it hard to reach the air The concrete boots he wears BThese concrete boFots he wears DMake it hard to reach tChe air BThese concrete boFots he wears BThese concrete boFots he wears DMake it hard to reach tChe air BThese concrete boFots he wears BHe FweDarCs BHe weFars
e|-------------------|
B|-------------------|
G|-------------------|
D|-0-0-00-0-00-0-x-0-|Palm muted

A|-0-0-00-0-00-0-x-0-|

D|-0-0-00-0-00-0-x-0-|

Finsh on the open strings D, A, D