Agnostic Front - Friend Or Foe Chords

Main Riff
Main Riff
Main Riff
 
No chord
Standard guitar tuning:
E
A
D
G
B
E
No capo

Verse x4

G|----------------------------------------------------------------------|
D|-----------------------------------------------------------------------|
A|-2-2-2-2-2-2-2-2-5-----------------------------------------------|
E|--------------------------5-3-5-3-5---------------------------------|

Chorus

Repeat Friend Foe x2
G|-------------------------------------------------------------------------
D|-------------------------------------------------------------------------
A|-3-3-3-2-2-2-3-3-3-2-2-2---3-3-3-2-2-2-3-3-3-2-2-2------
E|-------------------------------------------------------------|
Are you friend or foe?
G|-------------------------------------------------------------|
D|-------------------------------------------------------------|
A|-5-----------------------------------------------------------|
E|------5----3-----5--3----------------------------------------|