Agnostic Front - The Eliminator Chords

 
No chord
Standard guitar tuning:
E
A
D
G
B
E
No capo

Intro

G:----------------------------------
D:----------------------------------
A:-----8---10--8--10
E:----------------------------------

Verse

G:-------------------------------------
D:-------------------------------------
A:---------------------------------8---
E:-5--55555555--8--7-8--------
G:--------------------------------------|
D:--------------------------------------|
A:---------------------------------10--|
E:-5--55555555--8--7-8----------|

Chorus

G:------------------------------
D:--------------------------------
A:--8--8888--10---10-9-8-
E:---------------------------------
G:----------------------------------
D:-----------------------------------
A:--8--8888--10---10-11-12-
E:----------------------------------
G:----------------------------------
D:-----------------------------------
A:--8--8888--10--10-9-8----
E:----------------------------------
G:----------------------------------
D:----------------------------------
A:--8----10-10-10---10-10--
E:---------------------------------