Agnostic Front - Your Mistake Chords

Main Riff
Main Riff
Main Riff
 
No chord
    
Standard guitar tuning:
E
A
D
G
B
E
No capo

Intro

G:-----------------------|
D:-------------------------|
A:-5>---4>---------------|
E:-------------7>----------|

Verse

G:----------------------------|
D:----------------------------|
A:---------------------5---4--|
E:-7--7777777------------|

Chorus

G:---------------------|
D:---------------------|
A:-------------------------
E:-7-7-7-7---3----5----|

Bridge

G:-------------------------------------|
D:-------------------------------------|
A:----------7-7-7--------------------|
E:-7-7-7----------7-7-7--3---5---|