Alice Cooper - Am The Spider Epilogue Chords

 
         
         
         
         
         
1
1
X
X
X
2 fr
         
         
         
         
         
X
X
1
3
4
X
7 fr
         
         
         
         
         
X
1
3
4
X
X
         
         
         
         
         
X
X
X
7 fr
         
         
         
         
         
X
X
         
         
         
         
         
X
X
1
2
X
5 fr
         
         
         
         
         
X
1
3
4
X
X
10 fr
         
         
         
         
         
1
3
4
X
X
X
         
         
         
         
         
1
3
4
X
X
X
3 fr
         
         
         
         
         
X
X
1
3
4
X
8 fr
         
         
         
         
         
X
1
3
4
X
X
         
         
         
         
         
X
X
No chord
Standard guitar tuning:
E
A
D
G
B
E
No capo
     E5                     D5                 F5
e --------------------------------------------------------------------|
G---------------------------------------------------------------------|
B---------------------------------------------------------------------|
D-----9----------------------7------------------10--------------------|
A-----7----------------------5-------------------8--------------------|
E---------------------------------------------------------------------|

Intro

E5 E5 E5 E5

Verse

E5 E5

Chorus

E5 D5 F5

Play in between first two verses and after first chorus with an E5
e-----------------------------------|
B-----------------------------------|
G-----------------------------------|
D-----9---8---7-----------9---8---7-|
A---7---7---7---7-10-7--7---7---7---|
E-----------------------------------|

Verse

I'm your lover I'm your brother I'm your killer I'm your friend I'm your E5teacher I'm your preacher I'm the E5reaper in the end

Verse

I'm your healer I'm your dealer I'm your angel, lets pretend I'm your E5jailer I'm your failure I'm the E5reaper in the end

Chorus

E5Along came a Spider D5 F5 E5Crept up beside her D5 F5 Spun his web E5deep inside her D5 F5 My dE5arkness will guide her D5 F5 E5I am the D5spiderF5 E5I am the D5spiderF5 E5I am the D5spiderF5 E5I am the D5spiderF5

Verse

You're my sinner You're my dinner My little puppet, let's pretend You're the E5cure to my affliction My aE5ddiction to the end

Chorus

E5Along came a Spider D5 F5 E5Crept up beside her D5 F5 Spun his web E5deep inside her D5 F5 My dE5arkness will guide her D5 F5 E5I am the sD5pider F5 E5I am the sD5pider F5 E5I am the sD5pider F5 E5I am the sD5pider F5 Play During Interlude
e---------------------------------------------------------|
B-----------5---------------------------7-7---------------|
G-----5------5---------------7---------7------------------|
D---------5---5----------------7------7----7--------------|
A---3----3-3--------------5-----5----5--------------------|
E---------------------------------------------------------|

Interlude

I was born to it Not something to strive for Not something to even admire Unless it was it's done with the greatest of taste Conviction and expertise I am the spider

Chorus

E5Along came a Spider D5 F5 E5Crept up beside her D5 F5 Spun his web E5deep inside her D5 F5 My E5darkness will guide her D5 F5 E5I am the D5spider F5 E5I am the D5spider F5 E5I am the D5spider F5 E5I am the D5spider F5

Outro

E5 D5 F5

e---------------------------------------|
B------------------8-7-8-7s10s12s15-----|
G--9-7-9-7-9-7-9-7----------------------|
D---------------------------------------|
A---------------------------------------|
E---------------------------------------|
Not 100% sure about the little ending solo thingy, but it sounds pretty good.