Alice in Chains - Head Creeps Chords

 
No chord
Standard guitar tuning:
E
A
D
G
B
E
No capo
  very beginning    |lead intro  | rhythm intro riff                |
                    |            | verse riff           x3          |
e:-----------------||-----------||---------------------------|-----||
B:-----------------||-----------||*-------------------------*|-----||
G:-----------------||-----------||---------------------------|-----||
D:2--------2-------||-----------||*2------------------------*|2---3||
A:2--------2-------||10--\9--/14||-2-------------------------|2---3||
E:0--------0-------||-----------||-0---5b(6)b(5)b(6)b(5)b(6)-|0---1||
P.M. during intro only ..... =0D prechorus riff | prechorus-chorus= | transition
e:---------------------------------|------------------||-----------------=
---|
B:*--------------------------------|-----------------*||-----------------=
---|
G:---------------------------------|------------------||-----------------=
4~-|
D:*2---------7b(8)7b(8)7b(8)-b(8)7-|2----------------*||-10--9--5--4--2--=
2--|
A:-2---5-7-5----------------------6|2---5-7-5---------||-10--9--5--4--2--=
---|
E:-0-------------------------------|0---------6-6-6/7-||-8---7--3--2--0--=
---| =0D | chorus riff | that squeaky outro pa= rt | | x a bunch | =
e:|------------------|---------------------------||-10----10----11----12-=
---|
B:|*-----------------|--------------------------*||*---11----11----11----=
11*|
G:|---------------4~-|------------------------4~-||----------------------=
---|
D:|*2--8--8/9--2--2--|-2------5-----4---3--2--2-*||*---------------------=
--*|
A:|-2--8--8/9--2-----|-2----5-----4--------2-----||----------------------=
---|
E:|-0--6--6/7--0-----|-0--3-----2-----1----0-----||----------------------=
---| =0D =0D --PART.BOUNDARY.0.21256.emout04.mail.aol.com.817234772--