Alice in Chains - Suffragette City Chords

 
No chord
Standard guitar tuning:
E
A
D
G
B
E
No capo
|--------------------------------|--------------------------------|
|--------------------------------|--------------------------------|
|--------------------------------|--------------------------------|
|----------2--5--7--7--7--7--7---|------7--7--5--7--7-------------|
|----------2--5--7--7--7--7--7---|------7--7--5--7--7-------------|
|----------0--3--5--5--5--5--5---|------5--5--3--5--5-------------|
|--------------------------------|
|--------------------------------|
|----9--7--5--2------------------|
|----9--7--5--2------------------|
|----7--5--3--0------------------|
|--------------------------------|
Repeat each
chord  8x
|--------------------------------|
|--------------------------------|
|--------------------------------|
|-----------7--9--10--12---------|
|-----------7--9--10--12---------|
|-----------5--7--8---10---------|
"i gotta..."

Chorus

|--------------------------------|
|--------------------------------|
|-----7--10------12--------------|
|--7--7--10--10--12--------------|
|--7--5--8---10--10--------------|
|--5---------8-------------------|
"don't lean..." Thats all ive gotten figured out yet. ill get to the solo soon. It took me awhile to find this cd and its bad as hell. its a definate must get. Im gonna try and get the rest of the demos soon.