Alkaline Trio - 100 Stories Chords

 
No chord
Standard guitar tuning:
E
A
D
G
B
E
No capo

Intro

|------------------------------------------------------|
|------------------------------------------------------|
|--------2-----------22222222-44444444-----------------|
|222222--0--22222222-22222222-44444444-----------------| x2
|222222--0--22222222-00000000-22222222-----------------|
|000000-----00000000-----------------------------------|

Verse

|----------------------------------------------------------------|
|----------------------------------------------------------------|
|---------66666666-99999999-66666666-99999999-66666666-----------|
|22222222-66666666-99999999-66666666-99999999-66666666-22222222--|
|22222222-44444444-77777777-44444444-77777777-44444444-22222222--|
|00000000----------------------------------------------00000000--|
|-------------------------------------------------------------------|
|-------------------------------------------------------------------|
|66666666----------66666666-99999999-66666666----------444444444444-|
|66666666-77777777-66666666-99999999-66666666-77777777-444444444444-|
|44444444-77777777-44444444-77777777-44444444-77777777-222222222222-|
|---------55555555----------------------------55555555--------------|

Bridge

|---------------------------------------|
|---------------------------------------|
|6666------6666-9999-6666------44444444-|
|6666-7777-6666-9999-6666-7777-44444444-| x2 second time hit the last chord
|4444-7777-4444-7777-4444-7777-22222222-| once and let it ring
|-----5555----------------5555----------|

Chorus

|-------------------------------------|
|-------------------------------------|
|-99999999----------66666666----------|
|-99999999-99999999-66666666-77777777-| x2
|-77777777-99999999-44444444-77777777-|
|----------77777777----------55555555-|
|-------------------------------------|
|-------------------------------------|
|----------66666666-------------------|
|-66666666-66666666-77777777-99999999-|
|-66666666-44444444-77777777-99999999-|
|-44444444----------55555555-77777777-|
|-------------------------------------|
|-------------------------------------|
|------------------4444444444444444---|
|-6666666666666666-2222222222222222---| Now replay the intro, verse, bridge,
|-6666666666666666-2222222222222222---| and chorus over again.
|-4444444444444444--------------------|

Verse 3

|-----------------------------------------------------| It's hard to explain
|-----------------------------------------------------| how to do this but
|-4---4---4-----4---4---4-----4---4---4-----4---4---4-| if you listen to the
|-2---2---2-----2---2---2-----2---2---2-----2---2---2-| song it's the part
|-2---2---2-----2---2---2-----2---2---2-----2---2---2-| with the drum roll
|-----------------------------------------------------| at the end.

Outro

|------------------------------------|
|------------------------------------|
|-99999999-66666666------------------|
|-99999999-66666666-7777777777777777-| x4 The 4th time you play it hit the
|-77777777-44444444-7777777777777777-| last chord once and let it ring.
|-------------------5555555555555555-|