Anamanaguchi - Another Winter Chords

Main Riff
Main Riff
Main Riff
Main Riff
 
No chord
Standard guitar tuning:
E
A
D
G
B
E
No capo
Then Play..
Guitar 1- 0:33
-----------------------------|
-----------------------------|
-7-7-7-7-7-7-7-7~9-----------|
-7-7-7-7-7-7-7-7~9-----------|
-5-5-5-5-5-5-5-5~7-----------|
-----------------------------|
Guitar 1- 0:38 (Play this 2x)
-----------------------------|
-----------------------------|
----------------7-7-7-7------|
-7-7-7-7--------7-7-7-7------|
-7-7-7-7--------5-5-5-5------|
-5-5-5-5---------------------|
Guitar 1- 0:48 (play 4x)
----------------------------|
----------------------------|
------------11~9~7~6--------|
--7-7-7-7---11~9~7~6--------|
--5-5-5-5----9~7~5~4--------|
--5-5-5-5-------------------|
Guitar 1- 0:59 (play x 2)
------------------------------------------------------------------|
------------------------------------------------------------------|
--7-7-7-7-7-7-7-7~9-9-9-9-9-9-9-9~6-6-6-6-6-6-6-6~7-7-7-7-7-7-7-7-|
--7-7-7-7-7-7-7-7~9-9-9-9-9-9-9-9~6-6-6-6-6-6-6-6~7-7-7-7-7-7-7-7-|
--5-5-5-5-5-5-5-5~7-7-7-7-7-7-7-7~4-4-4-4-4-4-4-4~5-5-5-5-5-5-5-5-|
------------------------------------------------------------------|
Enjoy~ Sr101