Animals As Leaders - Song Of Solomon Chords

Main Riff
 
No chord
    
Standard guitar tuning:
E
A
D
G
B
E
No capo

Solo

He's insane, so don't question my fingerings and string skipping :p
e|-0--|-0--0-0--|---|
B|-3--|-7--7-7--|-5-|
G|-4--|-4--4-4--|-4-|
D|-2--|-5--5-5--|-2-|
A|-3--|-7--7-7--|---|
E|----|---------|---|
Fill he does
e|---------------------------------------------------------------------------|
B|-3p0-----------------------------------------------------------------------|
G|-----0---4p0---------------------------------------------------------------|
D|-------2-----2-------------------------------------------------------------|
A|---------------3-----------------------------------------------------------|
E|---------------------------------------------------------------------------|
Solo at the end of the chords. Had to slow down this part.
e|---------------------------------------------------------------------------|
B|---------------------------------------------------------------------------|
G|--7-4-----4---------7-4--------------------------5-7-8p4-----4-------------|
D|------5-----5-----5-----5---9-5------------5-7-9---------5-----6-----------|
A|--------7-----7-3---------7-----7----5-7-8-----------------7---------------|
E|-----------------------------------8-----------------------------7---------|
                                             T
e|---------------------------6-7-9-11p7------14p7------11p7------------------|
B|---------------------5-7-9------------11-9------11-9------11---------------|
G|---------------4-6-8-------------------------------------------------------|
D|---------4-6-8-------------------------------------------------------------|
A|---4-6-7-------------------------------------------------------------------|
E|-7-------------------------------------------------------------------------|
                                         T     T
e|-------------------------------------------------11------------------------|
B|-------------------------------7-----7-12p7-16p7----12---------------------|
G|-11p9-9-8--------------------8-----8-------------------11------------------|
D|----------11p9-8-----------------9------------------------14---------------|
A|-----------------11-9-7----7---------------------------------15------------|
E|------------------------11-------------------------------------------------|
e|------------------------14-15----------------------------------------------|
B|-------------------8-12----------------------------------------------------|
G|-----------9-11-12---------------------------------------------------------|
D|---------9-----------------------------------------------------------------|
A|----9-10-------------------------------------------------------------------|
E|-12------------------------------------------------------------------------|
e|---------------------------------------------------------------------------|
B|---------------------------------------------------------------------------|
G|---------------------------------------------------------------------------|
D|---------------------------------------------------------------------------|
A|---------------------------------------------------------------------------|
E|---------------------------------------------------------------------------|
e|---------------------------------------------------------------------------|
B|---------------------------------------------------------------------------|
G|---------------------------------------------------------------------------|
D|---------------------------------------------------------------------------|
A|---------------------------------------------------------------------------|
E|---------------------------------------------------------------------------|
| / slide up | \ slide down | h hammer-on | p pull-off | ~ vibrato | + harmonic | x Mute note | T Tapping