Anouk - Daze Chords

 

F

variations
         
         
         
         
         
1
3
4
2
1
1
         
         
         
         
         
X
X
3
2
1
1
6 fr
         
         
         
         
         
X
4
3
1
2
1
4 fr
         
         
         
         
         
X
X
1
2
4
3
9 fr
         
         
         
         
         
X
1
3
3
3
1
11 fr
         
         
         
         
         
4
3
1
1
1
X

11 fr
         
         
         
         
         
3
2
1
1
1
4
         
         
         
         
         
X
X
1
4
4
4
         
         
         
         
         
1
1
4
4
4
7 fr
         
         
         
         
         
X
1
3
2
4
1
         
         
         
         
         
3
1
2
         
         
         
         
         
2
3
1
4
4 fr
         
         
         
         
         
X
4
3
1
1
1

11 fr
         
         
         
         
         
X
X
4
3
2
1
12 fr
         
         
         
         
         
1
4
2
3
1
1
4 fr
         
         
         
         
         
X
         
         
         
         
         
2
3
1
4 fr
         
         
         
         
         
X
4
3
1
2
1
7 fr
         
         
         
         
         
X
1
4
4
4
X
2 fr
         
         
         
         
         
X
X
1
2
4
3
4 fr
         
         
         
         
         
4
3
1
2
1
7 fr
         
         
         
         
         
X
1
3
3
3
1

9 fr
         
         
         
         
         
4
3
1
1
1
X
9 fr
         
         
         
         
         
3
2
1
1
1
4
12 fr
         
         
         
         
         
1
3
4
2
1
1
4 fr
         
         
         
         
         
X
7 fr
         
         
         
         
         
1
3
4
2
1
1
         
         
         
         
         
X
2
1
X
3
         
         
         
         
         
X
1
4
4
4
X
         
         
         
         
         
X
1
3
3
3
1
4 fr
         
         
         
         
         
4
3
1
1
1
X
4 fr
         
         
         
         
         
3
2
1
1
1
4

9 fr
         
         
         
         
         
X
X
1
3
4
3
11 fr
         
         
         
         
         
X
4
3
1
2
1

Am

variations
4 fr
         
         
         
         
         
1
3
4
1
1
1
6 fr
         
         
         
         
         
X
X
1
3
4
2
4 fr
         
         
         
         
         
X
X
3
1
1
1
         
         
         
         
         
4
2
1
X
X
X
8 fr
         
         
         
         
         
X
4
3
1
2
X
11 fr
         
         
         
         
         
X
1
3
4
2
1

C

variations
4 fr
         
         
         
         
         
X
1
2
3
4
1
         
         
         
         
         
X
4
3
1
2
1
4 fr
         
         
         
         
         
X
1
4
4
4
X
6 fr
         
         
         
         
         
4
3
1
1
1
X
6 fr
         
         
         
         
         
3
2
1
1
1
4
9 fr
         
         
         
         
         
1
3
4
2
1
1

11 fr
         
         
         
         
         
X
X
1
3
4
3

Em

variations
6 fr
         
         
         
         
         
X
1
3
4
2
1
         
         
         
         
         
X
X
1
3
4
2
3 fr
         
         
         
         
         
X
4
2
1
X
X
6 fr
         
         
         
         
         
X
1
X
X
2
1
3 fr
         
         
         
         
         
X
4
3
1
2
X
11 fr
         
         
         
         
         
1
3
4
1
1
1
No chord
Standard guitar tuning:
E
A
D
G
B
E
No capo
e-----------------------| (2x)
B--------0---------0----|
G-----3-----3----3----3-|
D--2-----------2--------|
A-----------------------|
E-----------------------|
FDay in day out keep it oE7Mut of sight The things we do withoFut a thought It never has to E7Mend FDraw the blinds eE7Mntertain yourself Cause there's no room for noF one else Just leave the world outsideE7M Now do we even carFe FWe all juFst waElk around Bin a Amdaze Not knowinFg wBhat it's all aCbouFt FNow baby, FwouldEn't it Bbe grAmeat? If we coulFd tBurn it all aroCundF
e-----------------------|----------------------|----------------------|
B--------0---------0----|-------0---------0----|-------0---------0----|
G-----3-----3----3----3-|----3-----3----3----3-|----3-----3----3----3-|
D--4-----------4--------|-4-----------4--------|-2-----------2--------|
A-----------------------|----------------------|----------------------|
E-----------------------|----------------------|----------------------|
e-----------------------|
B--------0---------0----|
G-----3-----3----3----3-|
D--2-----------2--------|
A-----------------------|
E-----------------------|
Careless people, will remind you We're loosing grip and need a shift There's no easy way out Some will tell you that there's nothing wrong Just get on with what you want It never has to end Now do we even care FWe all juFst waElk around Bin a Amdaze Not knowinFg wBhat it's all aCbouFt FNow baby, FwouldEn't it Bbe grAmeat? If we coulFd tBurn it all aroCundF EmOne controls all that he seeFs Would you lAmike to see me cBrawCling OEmne is what he wants to be F ButAm he feels he's only BfalClin' doEmwn One's in paradFise OAmne searches his waBy bCack hEmome F Am B C Well I say EmOne is cool One is tired AmOne is smart One is crying BOne is dead One is high Did CI wake up in tiFme FWe all arFe loEst inside Bthe Ammaze We can'Ft fBind our wayC homFe FNow baby, FwouldEn't it Bbe grAmeat? If we coulFd tBurn it all aroCundF All aroEund, all BarAmound FTurBn it all arCounFd All EarounBd,Am all arounFd B C

F

e-----------------------|----------------------|----------------------|
B--------0---------0----|-------0---------0----|-------0---------0----|
G-----3-----3----3----3-|----3-----3----3----3-|----3-----3----3----3-|
D--4-----------4--------|-4-----------4--------|-2-----------2--------|
A-----------------------|----------------------|----------------------|
E-----------------------|----------------------|----------------------|
e-----------------------| (2x)
B--------0---------0----|
G-----3-----3----3----3-|
D--2-----------2--------|
A-----------------------|
E-----------------------|