Anthrax - Protest And Survive Chords

Main Riff
 
No chord
Standard guitar tuning:
E
A
D
G
B
E
No capo

Intro

 0:00
|---------------------------|---------------------|
|---------------------------|---------------------|
|---------------------------|-5--8--8----8--8-----|
|---------------------------|-5--8--8----8--8---0-|
|---------------------------|-3--6--6----6--6---0-|
|---0--0--0--0--0--0--0--0--|---------------------|
|----------------------------|---------------------|
|----------------------------|---------------------|
|----------------------------|-5--8--8----8--8-----|
|---0------------------------|-5--8--8----8--8---0-|
|---0------------------------|-3--6--6----6--6---0-|
|---0--0--0--0--0--0--0--0---|---------------------|

Chorus

 0:26
|------------------|----------------------------|
|------------------|----------------------------|
|------------------|----------------------------|
|--2-----3-----1---|-------1--1--1--1--1--1--1--|
|--2-----3-----1---|-------1--1--1--1--1--1--1--|
|--2-----3-----1---|-------1--1--1--1--1--1--1--|

Coda

 2:17
|----------------------------------------------|
|----------------------------------------------|
|---7------(7)\\\\\----------------------------|
|---7------(7)\\\\\----------------------------|
|---5------(5)\\\\\----------------------------|
|----------------------------------------------|