Anya Marina - Satellite Heart Live Chords

 
No chord
Standard guitar tuning:
E
A
D
G
B
E
No capo
e|-------------------------------------|--------------------------------|
B|-------------------------------------|--------------------------------|
G|-------11-11----11-11----11-11----11-|-----11-11---11-11---11-11---11-|
D|-------------------------------------|--------------------------------|
A|-------------------------------------|--------------------------------|
E|-11-11-------11-------11-------11----|-9-9-------9-------9-------9----|
and so on...

Intro

e-----------------2------|
B-----------------2------|
G---11-----11-----3------| play the last chord twice
D---11-----11-----4------|
A---x------x------4------|
E---11-----9------2------|

Verse

So pretty, so smart...
e-----------------2------|
B-----------------2------|
G---11-----11-----3------|
D---11-----11-----4------|
A---x------x------4------|
E---11-----9------2------|
adlip
e-----------------7------|
B-----------------7------|
G---11-----11-----8---7--|
D---11-----11-----9---7--|
A---x------x------9---x--|
E---11-----9------7---7--|
Don't You See it's wrong, can't you get it right...
e-----------------2------|
B-----------------2------|
G---11-----11-----3------|
D---11-----11-----4------|
A---x------x------4------|
E---11-----9------2------|
Call on all your girls, don't forget the boys...
e-----------------2------|
B-----------------2------|
G---11-----11-----3------| play the last chord twice
D---11-----11-----4------|
A---x------x------4------|
E---11-----9------2------|

Chorus

I'm a satellite heart...
e-----------------7--------|
B-----------------7--------|
G---11-----11-----8--------| last chord is a little tricky,
D---11-----11-----9--------| so listen to the song to get the timing
A---x------x------9--------|
E---11-----9------7--------|
I'm spun out so far...
e-----------------7-------2-|
B-----------------7-------2-|
G---11-----11-----8---7---3-|
D---11-----11-----9---7---4-|
A---x------x------9---x---4-|
E---11-----9------7---7---2-|
Pre-Verse
e-----------------2------|
B-----------------2------|
G---11-----11-----3------| play the last chord twice
D---11-----11-----4------|
A---x------x------4------|
E---11-----9------2------|

Verse ii

I hear you living out of state...
e-----------------2------|
B-----------------2------|
G---11-----11-----3------|
D---11-----11-----4------|
A---x------x------4------|
E---11-----9------2------|
You know I haven't slept in weeks...
e-----------------7-------2-------|
B-----------------7-------2-------|
G---11-----11-----8---7---3-------| play the last chord twice
D---11-----11-----9---7---4-------|
A---x------x------9---x---4-------|
E---11-----9------7---7---2-------|

Chorus

2x)
Ending
No matter what you do...
e---7-------2-|
B---7-------2-|
G---8---7---3-|
D---9---7---4-|
A---9---x---4-|
E---7---7---2-|