The Ataris - Teenager Of The Year Chords

 
No chord
Standard guitar tuning:
E
A
D
G
B
E
No capo

Intro

pick chords, not sure exactly how it goes, but you'll get the idea.
e|-------------------------------------------------------------
B|-------------------------------------------------------------
G|---7-----3-----------------3-----------3---------------------
D|---7-----3-----5----5------3-----5-----3------5--------------
A|---5-----1-----5----5------1-----5-----1------5--------------
E|---------------3----3------------3------------3--------------

Verse

palm mute, listen to song for timing.
e|-------------------------------------------------------------
B|-------------------------------------------------------------
G|-----------3---------------3---------------------------------
D|---5-------3-------5-------3---------------------------------
A|---5-------1-------5-------1---------------------------------
E|---3---------------3-----------------------------------------
care enough to wanna prove...

Chorus

e|-------------------------------------------------------------
B|-------------------------------------------------------------
G|-------------------3----------------------------------------
D|----3------5-------3-----------------------------------------
A|----3------5-------1-----------------------------------------
E|----1------3-------------------------------------------------
hey teenager of the year... Repeat intro Repeat verse Play chorus Repeat verse Play chorus and end on 3 not hard to play, just listen for how many times 3 to play each chord. 1