Atreyu - Exs And Ohs Chords

Main Riff
Main Riff
 
         
         
         
         
         
1
3
4
2
1
1
5 fr
         
         
         
         
         
X
4
3
1
2
1
3 fr
         
         
         
         
         
X
X
1
2
4
3
         
         
         
         
         
X
X
3
2
1
1
8 fr
         
         
         
         
         
X
1
3
3
3
1
10 fr
         
         
         
         
         
4
3
1
1
1
X

10 fr
         
         
         
         
         
3
2
1
1
1
4
         
         
         
         
         
X
X
2
3
1
5 fr
         
         
         
         
         
X
1
3
4
2
1
10 fr
         
         
         
         
         
X
X
1
1
1
5 fr
         
         
         
         
         
X
X
3
2
1
2 fr
         
         
         
         
         
X
4
3
1
2
X
10 fr
         
         
         
         
         
1
3
4
1
1
1

12 fr
         
         
         
         
         
X
X
1
3
4
2
         
         
         
         
         
X
3
2
1
3 fr
         
         
         
         
         
X
1
2
3
4
1
8 fr
         
         
         
         
         
1
3
4
2
1
1
3 fr
         
         
         
         
         
X
1
X
3
4
1
5 fr
         
         
         
         
         
3
2
1
1
1
4
10 fr
         
         
         
         
         
X
X
1
3
4
3

12 fr
         
         
         
         
         
X
4
3
1
2
1
3 fr
         
         
         
         
         
X

B

variations
         
         
         
         
         
X
1
2
3
4
1
6 fr
         
         
         
         
         
1
3
4
2
1
1
         
         
         
         
         
X
1
4
4
4
X
         
         
         
         
         
X
1
X
3
4
1
3 fr
         
         
         
         
         
3
2
1
1
1
4
8 fr
         
         
         
         
         
X
X
1
3
4
3

10 fr
         
         
         
         
         
X
4
3
1
2
1
         
         
         
         
         
X
1
2
3
5 fr
         
         
         
         
         
1
3
4
2
1
1
2 fr
         
         
         
         
         
X
1
1
1
4
         
         
         
         
         
X
X
1
2
2 fr
         
         
         
         
         
3
2
1
1
1
4
7 fr
         
         
         
         
         
X
X
1
3
4
3

9 fr
         
         
         
         
         
X
4
3
1
2
1
12 fr
         
         
         
         
         
X
1
3
3
3
1
         
         
         
         
         
3
2
4
3 fr
         
         
         
         
         
1
3
4
2
1
1
         
         
         
         
         
2
1
3
4
3 fr
         
         
         
         
         
X
X
3
2
1
1
5 fr
         
         
         
         
         
X
X
1
3
4
3
7 fr
         
         
         
         
         
X
4
3
1
2
1

10 fr
         
         
         
         
         
X
1
2
3
4
X
10 fr
         
         
         
         
         
X
1
3
3
3
1
12 fr
         
         
         
         
         
3
2
1
1
1
4

C

variations
4 fr
         
         
         
         
         
X
1
2
3
4
1
         
         
         
         
         
X
4
3
1
2
1
4 fr
         
         
         
         
         
X
1
4
4
4
X
6 fr
         
         
         
         
         
4
3
1
1
1
X
6 fr
         
         
         
         
         
3
2
1
1
1
4
9 fr
         
         
         
         
         
1
3
4
2
1
1

11 fr
         
         
         
         
         
X
X
1
3
4
3
7 fr
         
         
         
         
         
1
3
4
2
1
1
         
         
         
         
         
X
2
1
X
3
         
         
         
         
         
X
1
4
4
4
X
         
         
         
         
         
X
1
3
3
3
1
4 fr
         
         
         
         
         
4
3
1
1
1
X
4 fr
         
         
         
         
         
3
2
1
1
1
4

9 fr
         
         
         
         
         
X
X
1
3
4
3
11 fr
         
         
         
         
         
X
4
3
1
2
1
         
         
         
         
         
2
3
1
4 fr
         
         
         
         
         
X
4
3
1
2
1
7 fr
         
         
         
         
         
X
1
4
4
4
X
2 fr
         
         
         
         
         
X
X
1
2
4
3
4 fr
         
         
         
         
         
4
3
1
2
1
7 fr
         
         
         
         
         
X
1
3
3
3
1

9 fr
         
         
         
         
         
4
3
1
1
1
X
9 fr
         
         
         
         
         
3
2
1
1
1
4
12 fr
         
         
         
         
         
1
3
4
2
1
1
4 fr
         
         
         
         
         
X
No chord
Standard guitar tuning:
E
A
D
G
B
E
No capo
Key: F Chords used:

Intro

Dm--C--Bb--A x2
Guitar 2: x means palm mute, b means bend

Dm C B A

e|----0--1-|-------0-----1-----0---0h1p0---|----0--3-1-|-0--1--3--5b- B|-3-------|-3---------------------------1-|-3---------|------------- G|---------|-------------------------------|-----------|------------- D|---------|-------------------------------|-----------|------------- A|---------|---3-3---3-3---3-3---3---------|-----------|------------- E|---------|-------------------------------|-----------|-------------
x x x x x x x
     Dm                 C                          B                A
e|----0--1-|-------0-----1-----0---0h1p0---|----0--1--3--5--1-|-0--1--3--8b-
B|-3-------|-3---------------------------1-|-3----------------|-------------
G|---------|-------------------------------|------------------|-------------
D|---------|-------------------------------|------------------|-------------
A|---------|---3-3---3-3---3-3---3---------|------------------|-------------
E|---------|-------------------------------|------------------|-------------
x x x x x x x

Verse 1

Dm You took me home I drank too much Cause of you my liver turned to Cdust Cold rust taste cold creeping cold pain B Do you understand what I mean? Dm When you feel your soul drop to the floor Like a hole like an open bleeding Csore Then you'll have bled like I've bled Growl: B Then you'll have wept as I've wept
Guitar 2: In "Do you understand"
e|---------------------------------------
B|---------------------------------------
G|-14-14-14-9-9-9-10-10-10-7-7-7-7-7-7-7-
D|--x--x--x-x-x-x--x--x--x-x-x-x-x-x-x-x- x4
A|-12-12-12-7-7-7--8--8--8-5-5-5-5-5-5-5-
E|---------------------------------------
e|----------------------------------------------
B|----------------------------------------------
G|-14-14-14-9-9-9-10-10-10-15-15-15-14-14-14-14-
D|--x--x--x-x-x-x--x--x--x--x--x--x--x--x--x--x-
A|-12-12-12-7-7-7--8--8--8-13-13-13-12-12-12-12-
E|----------------------------------------------

Chorus

Do Intro for guitar 2 Dm Suck me down it's time to Crock and roll Let's Bhit the bar let's Alose control DmOne false move you Ctook me home BOne false move you're Aall alone

Verse 2

Dm But it looks so good and it feels so nice I've paid my price I'll cut you Cout just to hear you scream Get away fromB get away from me Growl: Dm And I can feel my heart beat raFcingDm F Dm As I realize what I must doF Dm F C Get away from get away fromB get away from you

Bridge

BShould've turned aAround like hell Dm Last time I got a Ftaste of you Growl: I Bshould've turned and Aran like hell C And I say we're Dmthrough C And I say we're Dmthrough
Guitar 2: In Bridge

B A Dm F

e|-------|-------|--------|-------- B|-------|-------|--------|-------- G|-7-----|-9-----|-10-----|-17-----
D|-x(x8)-|-x(x8)-|--x(x8)-|--x(x8)-
A|-5-----|-7-----|--8-----|-15-----
E|-------|-------|--------|----------
                                    |-x2

B A C Dm

e|-------|-------|--------|---------- B|-------|-------|--------|-------- G|-7-----|-9-----|-10-----|-7------
D|-x(x8)-|-x(x8)-|--x(x4)-|-x(x4)--
A|-5-----|-7-----|--8-----|-5------
E|-------|-------|--------|--------
   C       Dm     Break
e|--------|----|-17-------
B|--------|----|----17-18-
G|-10-----|-7--|----------
D|--x(x4)-|-x--|----------
A|--8-----|-5--|----------
E|--------|----|----------

Guitar solos

Bb--Dm--Bb--C#-Dm x2 C#-Dm Guitar 1: Travis Miguel at 2:03
            B

B E E E E E E E E E E

E||--------------------------|----------------------5--6--| B||--15----------------------|----------------------------|
G||--17b------------17--\14--|--14~--L--L--L--L--L--------|
D||--------------------------|----------------------------|
A||--------------------------|----------------------------|
E||--------------------------|----------------------------|

Dm

                                                 SH
   S E  S E  S S S E  S E  S S    E   E  E  E    E   E  E  E
--10----8----6---5----6----5---|------------------------------|
-------------------------------|--5b--L--5--------------------|
-------------------------------|------------------------------|
-----7----7----7---7----7----7-|---------------<>7~--L--------|
-------------------------------|------------------------------|
-------------------------------|------------------------------|
           B
  S S S S E  S S S S S S E  S S    S  S S S E  S S  E   E    S S E
------3-5--------0-6-8----------|--8-10------------10--13--/10-L-7b--|
----------3------------6------6-|-------8------8---------------------|
----5--------2-3---------5--5---|---------7-7------------------------|
--5-----------------------------|------------------------------------|
--------------------------------|------------------------------------|
--------------------------------|------------------------------------|
           C                           Dm

E E E E E E E E E E E E E E E E

--L--9-----7b--L--9-----8b--|--L--10--8-------------------|| ----------------------------|------------10~--L--L--L--L--|| ----------------------------|-----------------------------|| ----------------------------|-----------------------------|| ----------------------------|-----------------------------|| ----------------------------|-----------------------------||
Guitar 2: Dan Jacobs at 2:15, tapping
   T            T     B       T                T
   S S   S   S  S  S   S  S  S  S  S  S  S  S S S
--10-----------10----------------------------------|
-----8h-10h-11----11p-10p-8-10--------------6-8-6h-|
-------------------------------10p-9p-7h-9h--------|
---------------------------------------------------|
---------------------------------------------------|
---------------------------------------------------|
       T      T      T         T                 PM  Dm     PM PM
  S  S S S  S S S  S S S  S S  S S  S  S    Q    E  E  E  E  E  E
-----------------------------------------|----------------------1--|
--5p-3-3----1-3----1---------------------|-------------------------|
---------3h-----3p---2-0h----------------|----------3--2-----------|
--------------------------3-0h-2-0h------|-------0--------0--0-----|
------------------------------------3h---|-------------------------|
---------------------------------------3-|-------------------------|
                                                  B
   E  Q    E  E  Q      E       E  S  S  S  S S  S  S  S  S  S  S  S  S  S
---L--0---------------------|------8-10-13-10-8-10-15----------13----------|
-----------3--3-------------|-------------------------15-13-15----15-13-15-|
-----------------2----<>3~--|---L------------------------------------------|
----------------------------|----------------------------------------------|
----------------------------|----------------------------------------------|
----------------------------|----------------------------------------------|
\0/ \1 C\1
   S  S  S  S  E   E    Q.         E      Q.      H         E
--15--------------15b--15~------------|--------------------12--|
-----15-13-15-15----------------<>14--|--14-------L------------|
--------------------------------------|------------------------|
--------------------------------------|------------------------|
--------------------------------------|------------------------|
--------------------------------------|------------------------|
           Dm                                     C
                                                                  \1/
                                                           |-3-|
   Q       E    E   Q     Q        S S S S S S S S S S S S S S S  E
--12b----(12)--10--10----10\----|--8-6-5-3-1-0-8-6-5-3-1-0-8-6-5-10---|
--------------------------------|--------------------------------13b--|
--------------------------------|-------------------------------------|
--------------------------------|-------------------------------------|
--------------------------------|-------------------------------------|
--------------------------------|-------------------------------------|
   \1    Dm    /0

B B

--10--------10--------|| --13--------13--------|| ----------------------|| ----------------------|| ----------------------|| ----------------------||

Verse 3

Guitars only: Guitar 2 will do the intro riff DmYou fell uCpon me like a Bplague AWeakness sweet weakness Bass will enter: Dm But I digCress After Ball this A You're just like all the rest

C

End on Dm Duration Legend . - note dotted |-n-| - n-tuplets