Authority Zero - Courage Chords

Main Riff
 
         
         
         
         
         
X
3
2
1
3 fr
         
         
         
         
         
X
1
2
3
4
1
8 fr
         
         
         
         
         
1
3
4
2
1
1
3 fr
         
         
         
         
         
X
1
X
3
4
1
5 fr
         
         
         
         
         
3
2
1
1
1
4
10 fr
         
         
         
         
         
X
X
1
3
4
3

12 fr
         
         
         
         
         
X
4
3
1
2
1
3 fr
         
         
         
         
         
X
         
         
         
         
         
3
2
4
3 fr
         
         
         
         
         
1
3
4
2
1
1
         
         
         
         
         
2
1
3
4
3 fr
         
         
         
         
         
X
X
3
2
1
1
5 fr
         
         
         
         
         
X
X
1
3
4
3
7 fr
         
         
         
         
         
X
4
3
1
2
1

10 fr
         
         
         
         
         
X
1
2
3
4
X
10 fr
         
         
         
         
         
X
1
3
3
3
1
12 fr
         
         
         
         
         
3
2
1
1
1
4
         
         
         
         
         
X
X
1
3
2
2 fr
         
         
         
         
         
X
4
3
1
2
1
5 fr
         
         
         
         
         
X
1
2
3
4
1
5 fr
         
         
         
         
         
X
1
4
4
4
X
7 fr
         
         
         
         
         
4
3
1
1
1
X
7 fr
         
         
         
         
         
3
2
1
1
1
4

10 fr
         
         
         
         
         
1
3
4
2
1
1
12 fr
         
         
         
         
         
X
X
1
3
4
3
5 fr
         
         
         
         
         
X
X
No chord
Standard guitar tuning:
E
A
D
G
B
E
No capo

Intro

played with chords(can be played with power chords)
Chords used;

C G D

e|---0---3---2---| B|---1---3---3---| G|---0---0---2---| D|---2---0---0---| A|---3---x-------| E|---x---3-------|
With Ska Strumming

Verse

again, played with chords, or power chords
   CCC M                        GGG M                      DDD M         DDD
e|-000-----X-----X-----X-----X--333----X----X----X----X----222--X-X-X-X--222-|
B|-111-----X-----X-----X-----X--333----X----X----X----X----333--X-X-X-X--333-|
G|-000-----X-----X-----X-----X--000----X----X----X----X----222--X-X-X-X--222-|
D|-222-----X-----X-----X-----X--000----X----X----X----X----000--X-X-X-X--000-|
A|-333-----X-----X-----X-----X--XXX----X----X----X----X---------X-X-X-X------|
E|-XXX-----X-----X-----X-----X--333----X----X----X----X---------X-X-X-X------|
Your torn like a flag on a battleground Stepped on and beaten down
e|---------------------------------------------------------------------------|
B|---------------------------------------------------------------------------|
G|-555----5-----5------5-----5-----------------------------777--7-7-7--5/777-|
D|-555----5-----5------5-----5--555----5----5----5----5----777--7-7-7--5/777-|
A|-333----3-----3------3-----3--555----5----5----5----5----555--5-5-5--3/555-|
E|------------------------------333----3----3----3----3----------------------|
Lyrics CSo you say you're on your owGn And nothing's going righDtD CFist to fist and heart to hearGt You get back up and fighDt G.D.And now... CYour torn like a flag on a Gbattleground Stepped on and Dbeaten downG D CBut somehow, yeah somehow You still Gmanage, yeah you manage to survivDe You manage Gto Dsurvive.

Chorus

] CIt's your courGage DTake 'em on, take 'em out GTDake a stand, take a bow CIt's your courGage DTake 'em on, take 'em out GTDake a stand, take a bow So... CSo now you're thinking it's the enGd You're stuck in your self doubDt G D CAnd if a picture says 1000 wordGs Take 'em till your words run DoutG D CWell it's a new chapter in your life In your broken Gsoul, your broken bones Your broken hearDt, your broken bonds ButG Dyou still fight to make it right In your broken Csoul, your broken bones Your broken hearGt, your broken bonds But you still Dfight to make it right to make itG Dright!

Chorus

] CIt's last call, last chanceG Line 'em up and let's make it lasDt Why wait when the days goG Dfast Make the call don't let it pass [x4]

Chorus

] Key; . = Palm Mute m = Mute