Bad Religion - Queen Of The 21st Century Chords

 
         
         
         
         
         
X
X
1
2
X
5 fr
         
         
         
         
         
X
1
3
4
X
X
10 fr
         
         
         
         
         
1
3
4
X
X
X
         
         
         
         
         
1
3
4
X
X
X
3 fr
         
         
         
         
         
X
X
1
3
4
X
8 fr
         
         
         
         
         
X
1
3
4
X
X
         
         
         
         
         
X
X
3 fr
         
         
         
         
         
X
1
3
4
X
X
8 fr
         
         
         
         
         
1
3
4
X
X
X
10 fr
         
         
         
         
         
X
X
1
3
4
X
3 fr
         
         
         
         
         
X
X
3 fr
         
         
         
         
         
1
3
4
X
X
X
5 fr
         
         
         
         
         
X
X
1
3
4
X
10 fr
         
         
         
         
         
X
1
3
4
X
X
         
         
         
         
         
X
3 fr
         
         
         
         
         
X
X
No chord
Standard guitar tuning:
E
A
D
G
B
E
No capo
   D5  F5   C5  G5
e|---|----|---|---|
B|---|----|---|---|
G|-7-|-10-|-5-|---|
D|-7-|-10-|-5-|-5-|
A|-5-|--8-|-3-|-5-|
E|---|----|---|-3-|

Intro

D5 F5 C5 G5 Fi

Fill1: (Guitar 1)
e|-----------------|
B|-----------------|
G|-----------------|
D|-----------------|
A|-7-5---------7-5-|
E|-----7-5-7/9-----|

Verse 1

From the D5time she could F5crawl She was C5all draped in G5macrFiame. She was D5preened and reF5deemed In a C5church that tried to G5showFi the way.

Gui

Fill2: (Guitar 2)

G5

e|-----------------| B|-----------------| G|-----------------| D|-5-----------5---| A|-5-------5-7-----| E|-3---------------|

Fi Fi

D5She was taught to F5never ask for C5more, G5 Fi Fi D5They had no iF5dea of what she C5had in G5storFie. Fi

Chorus

Gui

She's the D5queen of the F521st C5centurG5y, Just a D5ghost of what her F5parents thought a C5little girl should G5be: Analog D5heart, analog F5nerves, analog C5brain, G5 But a D5fixture of the F5digital doC5main. G5

Interlude

D5 F5 C5 G5

e|-----------------|-----------------|-----------------|-----------------|
B|-15b17-----------|-13~-------------|-13--------------|-----------------|
G|-----------------|---------12------|---------14--12--|-----------------|
D|---------14b16---|-----------------|-----------------|-12~---------12\-|
A|-----------------|-----------------|-----------------|-----------------|
E|-----------------|-----------------|-----------------|-----------------|

Verse 2

Gui

Fig

D5 F5 C5 G5

e|-----------------|-----------------|-----------------|-----------------| B|-----------------|-----------------|-----------------|-----------------| G|---------7-7-----|---------1010----|---------5-5-----|-----------------| D|-7-7-7-7-7-7-7-7-|-1010101010101010|-5-5-5-5-5-5-5-5-|---------5-5-----| A|-5-5-5-5-5-5-5-5-|-8-8-8-8-8-8-8-8-|-3-3-3-3-3-3-3-3-|-5-5-5-5-5-5-5-5-| E|-----------------|-----------------|-----------------|-3-3-3-3-3-3-3-3-| 4x
|--P.M.-| |-----P.M.----| |-----P.M.----| |-----P.M.----| P.M. From the D5time she could F5read She could C5see that there was urG5gency, No deD5bate, just a F5spate of ignoC5rance In a splintering comG5munity. D5She could never F5meet their expecC5tatiG5ons,Fi D5Then she came to F5symbolize the C5natiG5on. Fi

Chorus

She's the D5queen of the F521st C5centurG5y, Just a D5shred of what her F5parents thought a C5little girl should G5be: Steeped in D5spite, coddled in F5fear, drenched in C5novelG5ty, But D5masterful at F5sensual techC5nologG5y.

Interlude

   D5                        F5
e|-------------------------|-------------------------|
B|-------------------------|-------------------------|
G|-11-11-11-11-11-11-11-11-|-14-14-14-14-14-14-14-14-|
D|-12-12-12-12-12-12-12-12-|-15-15-15-15-15-15-15-15-|
A|-------------------------|-------------------------|
E|-------------------------|-------------------------|
   C5                        G5
e|-------------------------|-------------------------|
B|-------------------------|-------------------------|
G|--9--9--9--9--9--9--9--9-|-------------------------|
D|-10-10-10-10-10-10-10-10-|--9--9--9--9--9--9--9--9-|
A|-------------------------|-10-10-10-10-10-10-10-10-|
E|-------------------------|-------------------------|

Bridge

She's the D5queen!G5 D5 C5 She's the D5queen,G5 no D5rules in her emC5pire. She's the D5queen,G5 just liD5bido and deC5sire. She's the D5lean, mean, G5fighting machine, The D5stuff of modern media C5lore And she D5always C5knows the F5score.

Solo

   D5                        F5
e|-------------------------|-------------------------|
B|-------------------------|-------------------------|
G|-14-14-14-14b16b14~~-----|-11-11-11-11b13b11-------|
D|-15-15-15-15----15~~-----|-12-12-12-12----12-------|
A|-------------------------|-------------------------|
E|-------------------------|-------------------------|
   C5                           G5
e|----------------------------|-----------------------------|
B|----------------------------|-----------------------------|
G|-12-10b12-13----------------|-----------------------------|
D|-------------12~~--------10-|-----------------------------|
A|-------------------10-12----|-12-10-8-10b12-8-------------|
E|----------------------------|-----------------12b14-12-10-|
   D5                        F5
e|-----------------------|-------------------------|
B|-----------------------|-------------------------|
G|-----------------------|-14----------------------|
D|--------------------12-|----12-10-10~~-----------|
A|------------14--12-----|-------------------------|
E|-10--12--14------------|-------------------------|
   C5                        G5
e|-------------------------|-------------------------|
B|-------------------------|-------------------------|
G|-------------------------|-------------------------|
D|----16///14///12///10///_|_14----------------------|
A|-14----------------------|----14///12///10///9///--|
E|-------------------------|-------------------------|

Chorus

She's the D5queen of the F521st C5centuG5ry, Just a D5ghost of what her F5parents thought a C5little girl should G5be: Fallen D5star, black and F5blue, Broken C5hearts, wasted G5youth, Rusted D5cars, twisted F5roots, Mental C5scars, the ugly G5truth.

Interlude

   D5                        F5
e|-------------------------|-------------------------|
B|-------------------------|-------------------------|
G|-11-11-11-11-11-11-11-11-|-14-14-14-14-14-14-14-14-|
D|-12-12-12-12-12-12-12-12-|-15-15-15-15-15-15-15-15-|
A|-------------------------|-------------------------|
E|-------------------------|-------------------------|
   C5                        G5
e|-------------------------|-------------------------|
B|-------------------------|-------------------------|
G|--9--9--9--9--9--9--9--9-|-------------------------|
D|-10-10-10-10-10-10-10-10-|--9--9--9--9--9--9--9--9-|
A|-------------------------|-10-10-10-10-10-10-10-10-|
E|-------------------------|-------------------------|

Outro

She's the D5queen of the F521st C5centuG5ry She's the D5queen of the F521st C5centuG5ry And she's a D5modern-day poleF5mic, A walking C5controverG5sy.
   D5                      F5
e|-----------------------|-------------------------|
B|-----------------------|-------------------------|
G|-----------------------|-------------------------|
D|-----------------------|-12-14~~-----14-14-14-14-|
A|-10--12--14-10--12--14-|-------------------------|
E|-----------------------|-------------------------|
   C5                        G5
e|-------------------------|-------------------------|
B|-------------------------|-------------------------|
G|-------------------------|-------------------------|
D|-------------------------|-------------------------|
A|-15-15-15-15-14-14-14-14-|-12~~--------------------|
E|-------------------------|-------------------------|
She's the D5queen of the F521st C5centuG5ry She's the D5queen of the F521st C5centuG5ry She's the D5queen of the F521st C5centuG5ry She's the D5queen! THE END