The Beatles - Beatles For Sale Chords

 
         
         
         
         
         
X
3
2
1
3 fr
         
         
         
         
         
X
1
2
3
4
1
8 fr
         
         
         
         
         
1
3
4
2
1
1
3 fr
         
         
         
         
         
X
1
X
3
4
1
5 fr
         
         
         
         
         
3
2
1
1
1
4
10 fr
         
         
         
         
         
X
X
1
3
4
3

12 fr
         
         
         
         
         
X
4
3
1
2
1
3 fr
         
         
         
         
         
X
         
         
         
         
         
X
X
2
1
3
5 fr
         
         
         
         
         
X
1
3
1
4
1
5 fr
         
         
         
         
         
X
X
1
3
1
10 fr
         
         
         
         
         
1
3
1
2
1
1
5 fr
         
         
         
         
         
X
1
3
3
3
4
7 fr
         
         
         
         
         
4
3
1
1
1
2

10 fr
         
         
         
         
         
1
3
1
2
X
1
10 fr
         
         
         
         
         
1
3
1
2
4
1
12 fr
         
         
         
         
         
X
X
1
3
2
4
         
         
         
         
         
3
2
5 fr
         
         
         
         
         
X
X
1
3
1
4
10 fr
         
         
         
         
         
X
         
         
         
         
         
3
2
4
3 fr
         
         
         
         
         
1
3
4
2
1
1
         
         
         
         
         
2
1
3
4
3 fr
         
         
         
         
         
X
X
3
2
1
1
5 fr
         
         
         
         
         
X
X
1
3
4
3
7 fr
         
         
         
         
         
X
4
3
1
2
1

10 fr
         
         
         
         
         
X
1
2
3
4
X
10 fr
         
         
         
         
         
X
1
3
3
3
1
12 fr
         
         
         
         
         
3
2
1
1
1
4
         
         
         
         
         
2
3
3 fr
         
         
         
         
         
X
X
2
4
1
7 fr
         
         
         
         
         
X
1
3
4
2
1
2 fr
         
         
         
         
         
X
X
1
3
4
2
3 fr
         
         
         
         
         
X
3
2
4
1
4 fr
         
         
         
         
         
X
4
3
1
2
X

12 fr
         
         
         
         
         
1
3
4
1
1
1
         
         
         
         
         
X
1
3
4
2
1
7 fr
         
         
         
         
         
1
3
4
1
1
1
         
         
         
         
         
X
1
3
4
2
X
7 fr
         
         
         
         
         
X
X
3
1
1
1
9 fr
         
         
         
         
         
X
X
1
3
4
2
11 fr
         
         
         
         
         
X
4
3
1
2
X
         
         
         
         
         
X
3
2
3 fr
         
         
         
         
         
X
1
3
2
4
1
3 fr
         
         
         
         
         
X
1
X
3
4
2
8 fr
         
         
         
         
         
1
X
3
4
2
X
7 fr
         
         
         
         
         
X
X
4
3
2
1
8 fr
         
         
         
         
         
1
4
2
3
1
1

10 fr
         
         
         
         
         
X
X
1
3
3
3
12 fr
         
         
         
         
         
X
4
3
1
1
X
         
         
         
         
         
X
2
1
         
         
         
         
         
X
2
3
1
4
5 fr
         
         
         
         
         
X
1
1
1
1
5 fr
         
         
         
         
         
1
3
1
1
1
1
5 fr
         
         
         
         
         
1
3
1
1
4
1
7 fr
         
         
         
         
         
X
1
4
2
3

10 fr
         
         
         
         
         
X
2
1
3
1
4
12 fr
         
         
         
         
         
X
1
3
1
2
4
5 fr
         
         
         
         
         
X
         
         
         
         
         
X
2
1
3
4
         
         
         
         
         
X
1
3
1
4
1
7 fr
         
         
         
         
         
1
3
1
2
1
1
7 fr
         
         
         
         
         
1
X
2
4
3
X
2 fr
         
         
         
         
         
X
1
3
3
3
4
4 fr
         
         
         
         
         
4
3
1
1
1
2

7 fr
         
         
         
         
         
1
3
1
2
X
1
7 fr
         
         
         
         
         
1
3
1
2
4
1
9 fr
         
         
         
         
         
X
X
1
3
2
4

G6add9

variations
         
         
         
         
         
3
1
2
         
         
         
         
         
2
1
1
1
3
4
9 fr
         
         
         
         
         
X
2
1
1
3
4
         
         
         
         
         
X
X
1
3
2
2 fr
         
         
         
         
         
X
4
3
1
2
1
5 fr
         
         
         
         
         
X
1
2
3
4
1
5 fr
         
         
         
         
         
X
1
4
4
4
X
7 fr
         
         
         
         
         
4
3
1
1
1
X
7 fr
         
         
         
         
         
3
2
1
1
1
4

10 fr
         
         
         
         
         
1
3
4
2
1
1
12 fr
         
         
         
         
         
X
X
1
3
4
3
5 fr
         
         
         
         
         
X
X
         
         
         
         
         
X
1
2
3
5 fr
         
         
         
         
         
1
3
4
2
1
1
2 fr
         
         
         
         
         
X
1
1
1
4
         
         
         
         
         
X
X
1
2
2 fr
         
         
         
         
         
3
2
1
1
1
4
7 fr
         
         
         
         
         
X
X
1
3
4
3

9 fr
         
         
         
         
         
X
4
3
1
2
1
12 fr
         
         
         
         
         
X
1
3
3
3
1
         
         
         
         
         
2
3
1
4 fr
         
         
         
         
         
X
4
3
1
2
1
7 fr
         
         
         
         
         
X
1
4
4
4
X
2 fr
         
         
         
         
         
X
X
1
2
4
3
4 fr
         
         
         
         
         
4
3
1
2
1
7 fr
         
         
         
         
         
X
1
3
3
3
1

9 fr
         
         
         
         
         
4
3
1
1
1
X
9 fr
         
         
         
         
         
3
2
1
1
1
4
12 fr
         
         
         
         
         
1
3
4
2
1
1
4 fr
         
         
         
         
         
X
         
         
         
         
         
X
2
3
1
5 fr
         
         
         
         
         
1
3
4
1
1
1
5 fr
         
         
         
         
         
X
X
1
1
1
8 fr
         
         
         
         
         
X
3
2
4
1
2 fr
         
         
         
         
         
X
1
4
4
4
7 fr
         
         
         
         
         
X
1
3
4
2

9 fr
         
         
         
         
         
X
4
3
1
2
X
12 fr
         
         
         
         
         
X
1
3
4
2
1
5 fr
         
         
         
         
         
X
         
         
         
         
         
1
3
4
2
1
1
5 fr
         
         
         
         
         
X
4
3
1
2
1
3 fr
         
         
         
         
         
X
X
1
2
4
3
         
         
         
         
         
X
X
3
2
1
1
8 fr
         
         
         
         
         
X
1
3
3
3
1
10 fr
         
         
         
         
         
4
3
1
1
1
X

10 fr
         
         
         
         
         
3
2
1
1
1
4
         
         
         
         
         
X
X
2
3
1
5 fr
         
         
         
         
         
X
1
3
4
2
1
10 fr
         
         
         
         
         
X
X
1
1
1
5 fr
         
         
         
         
         
X
X
3
2
1
2 fr
         
         
         
         
         
X
4
3
1
2
X
10 fr
         
         
         
         
         
1
3
4
1
1
1

12 fr
         
         
         
         
         
X
X
1
3
4
2
         
         
         
         
         
2
3
1
4
         
         
         
         
         
2
1
         
         
         
         
         
X
X
1
3
2
4
7 fr
         
         
         
         
         
X
1
3
1
4
1
         
         
         
         
         
2
1
4
7 fr
         
         
         
         
         
X
1
3
3
3
4

9 fr
         
         
         
         
         
4
3
1
1
1
2
12 fr
         
         
         
         
         
1
3
1
2
4
1

Cm

variations
4 fr
         
         
         
         
         
X
1
3
4
2
1
9 fr
         
         
         
         
         
1
3
4
1
1
1
         
         
         
         
         
X
4
2
1
X
X
         
         
         
         
         
X
4
3
1
2
X
4 fr
         
         
         
         
         
X
1
X
X
2
1
11 fr
         
         
         
         
         
X
X
1
3
4
2

4 fr
         
         
         
         
         
X
X

F

variations
         
         
         
         
         
1
3
4
2
1
1
         
         
         
         
         
X
X
3
2
1
1
6 fr
         
         
         
         
         
X
4
3
1
2
1
4 fr
         
         
         
         
         
X
X
1
2
4
3
9 fr
         
         
         
         
         
X
1
3
3
3
1
11 fr
         
         
         
         
         
4
3
1
1
1
X

11 fr
         
         
         
         
         
3
2
1
1
1
4
         
         
         
         
         
X
1
1
1
3
         
         
         
         
         
X
1
3
5 fr
         
         
         
         
         
1
3
1
2
1
1
7 fr
         
         
         
         
         
X
1
3
2
4
2 fr
         
         
         
         
         
4
3
1
1
1
2
5 fr
         
         
         
         
         
1
3
1
2
4
1

7 fr
         
         
         
         
         
X
X
1
3
2
4
10 fr
         
         
         
         
         
X
3
2
4
1
12 fr
         
         
         
         
         
X
1
3
3
3
4
         
         
         
         
         
3
2
1
3 fr
         
         
         
         
         
1
3
1
2
1
1
5 fr
         
         
         
         
         
X
X
1
3
2
4
         
         
         
         
         
1
X
2
4
3
X
3 fr
         
         
         
         
         
1
3
1
2
4
1
10 fr
         
         
         
         
         
X
1
3
3
3
4

10 fr
         
         
         
         
         
X
1
3
1
4
1
12 fr
         
         
         
         
         
4
3
1
1
1
2
3 fr
         
         
         
         
         
1
3
4
1
1
1
5 fr
         
         
         
         
         
X
X
1
3
4
2
3 fr
         
         
         
         
         
X
X
3
1
1
1
         
         
         
         
         
1
X
2
3
4
         
         
         
         
         
3
1
X
X
X
         
         
         
         
         
2
1
3
4

7 fr
         
         
         
         
         
X
4
3
1
2
X
10 fr
         
         
         
         
         
X
1
3
4
2
1
         
         
         
         
         
2
7 fr
         
         
         
         
         
X
1
3
1
2
1
         
         
         
         
         
X
X
1
3
2
2
         
         
         
         
         
1
2
4
4
         
         
         
         
         
2
3
4
         
         
         
         
         
2
4

3 fr
         
         
         
         
         
X
3
2
1
5 fr
         
         
         
         
         
X
2
1
3
1
4
7 fr
         
         
         
         
         
X
1
3
1
2
X
7 fr
         
         
         
         
         
X
1
3
1
2
4
12 fr
         
         
         
         
         
1
3
1
1
4
1
         
         
         
         
         
1
3
1
2
1
1
3 fr
         
         
         
         
         
X
X
1
3
2
4
8 fr
         
         
         
         
         
X
1
3
1
4
1
         
         
         
         
         
1
3
1
2
4
1
         
         
         
         
         
1
X
2
4
3
X
8 fr
         
         
         
         
         
X
1
3
3
3
4

10 fr
         
         
         
         
         
4
3
1
1
1
2

Am/B

         
         
         
         
         
X
2
3
4
1
3 fr
         
         
         
         
         
X
1
3
1
4
1
8 fr
         
         
         
         
         
1
3
1
2
1
1
3 fr
         
         
         
         
         
X
1
X
1
4
1
3 fr
         
         
         
         
         
X
1
3
3
3
4
5 fr
         
         
         
         
         
4
3
1
1
1
2
8 fr
         
         
         
         
         
1
3
1
2
X
1

8 fr
         
         
         
         
         
1
3
1
2
4
1
10 fr
         
         
         
         
         
X
X
1
3
2
4
         
         
         
         
         
1
2
3
1
4
1
3 fr
         
         
         
         
         
X
X
1
3
1
2
6 fr
         
         
         
         
         
X
3
1
2
1
4
         
         
         
         
         
X
X
2
1
1
5 fr
         
         
         
         
         
X
1
3
1
2
1
5 fr
         
         
         
         
         
X
1
X
2
4
3
5 fr
         
         
         
         
         
X
1
3
1
2
4
3 fr
         
         
         
         
         
X
2
1
3
1
4
10 fr
         
         
         
         
         
1
3
X
1
4
1

10 fr
         
         
         
         
         
1
3
1
1
4
1
10 fr
         
         
         
         
         
1
3
1
1
1
1
12 fr
         
         
         
         
         
X
X
1
3
2
2
5 fr
         
         
         
         
         
X
X
7 fr
         
         
         
         
         
1
3
4
2
1
1
         
         
         
         
         
X
2
1
X
3
         
         
         
         
         
X
1
4
4
4
X
         
         
         
         
         
X
1
3
3
3
1
4 fr
         
         
         
         
         
4
3
1
1
1
X
4 fr
         
         
         
         
         
3
2
1
1
1
4

9 fr
         
         
         
         
         
X
X
1
3
4
3
11 fr
         
         
         
         
         
X
4
3
1
2
1

E/G

variations
4 fr
         
         
         
         
         
1
4
3
1
2
1
         
         
         
         
         
4
2
3
1
4 fr
         
         
         
         
         
1
X
X
2
4
3
4 fr
         
         
         
         
         
X
X
3
1
2
1

B

variations
         
         
         
         
         
X
1
2
3
4
1
6 fr
         
         
         
         
         
1
3
4
2
1
1
         
         
         
         
         
X
1
4
4
4
X
         
         
         
         
         
X
1
X
3
4
1
3 fr
         
         
         
         
         
3
2
1
1
1
4
8 fr
         
         
         
         
         
X
X
1
3
4
3

10 fr
         
         
         
         
         
X
4
3
1
2
1

D7sus4

variations
         
         
         
         
         
X
X
2
1
3
5 fr
         
         
         
         
         
X
1
3
1
4
1
10 fr
         
         
         
         
         
1
2
1
3
X
1

Dsus2

variations
         
         
         
         
         
X
X
3
4
2 fr
         
         
         
         
         
X
3
1
1
2
4
2 fr
         
         
         
         
         
X
2
1
1
3
4
5 fr
         
         
         
         
         
X
1
3
4
1
1
7 fr
         
         
         
         
         
4
1
1
1
X
X
9 fr
         
         
         
         
         
X
X
3
1
2
4
No chord
Standard guitar tuning:
E
A
D
G
B
E
No capo
Co o D7o G6oooo Gooo o Em ooo Bm C7M ooo oAm7 B7 o G6add9 The fingering for the G6add9 is a bit awkward so you may want to just play it as a G major chord, although it doesn't sound as good.

Verse 1

N.C.This happened once beCfore When I came to your D7door No reG6ply They said it wasn't Cyou But I saw you peep D7through Your Gwindow I saw the lEmight Bm I saw the lC7Might Bm I know that you sawAm7 me 'Cause I looked up toD7 see Your Gface

Verse 2

I tried to teleCphone They said you were not D7home That's a G6lie 'Cause I know where you've Cbeen I saw you walk D7in Your Gdoor I nearly dEmied Bm I nearly dC7Mied Bm 'CAm7ause you walked hanD7d in hand With another man In my Gplace

Go C DA E E

Bridge

If I were Gyou I'd B7realize that EI Love you Ammore than Cany other Gguy And I'll forGgive the B7lies that EI Heard beAmfore when you Cgave me no reGply

E E

Coda

No repEmly Bm No repC7Mly G6add9 I'm a Loser.

Ca

I'm a Am7loser, I'm a D7loser, And I'm Am7not what I apFpear to D7be. GOf all the Dmlove I have Fwon or have Glost There is one Dmlove I should Fnever have Gcrossed. She was a Dmgirl in a Fmillion my Gfriend, I should have Dmknown she would Fwin in the Gend.

Chorus

I'm aAm7 losD7er, and I Am7lost someone who's D7near to me I'm a GlosEmer, and I'm Am7not what I apFpear to D7be. Although I laugh and I act like a clown Beneath this mask I am wearing a frown. My tears are falling like rain from the sky Is it for her or myself that I cry Chorus. What have I done to deserve such a fate I realise I have left it too late. And so it's true pride comes before a fall I'm telling you so that you don't lose all. Chorus. Baby's in black EOh dear, B7what can I do, Ababy's in black, and B7I'm feeling blue Tell me Eoh, Awhat can I Edo B7 EShe thinks of him and E7so she dresses in Ablack And Athough he'll never come Eback B7she's dressed in Eblack EOh dear, B7what can I do, Ababy's in black, and B7I'm feeling blue Tell me Eoh, Awhat can I Edo B7 EI think of her, but E7she thinks only of Ahim And Athough it's only a Ewhim B7she thinks of Ehim CmOh how Flong will it take /A till she B7sees the mistake she has EOh dear, B7what can I do Ababy's in black, and B7I'm feeling blue Tell me Eoh, Awhat can I Edo B7 EShe thinks of him and E7so she dresses in Ablack And Athough he'll never come Eback B7she's dressed in Eblack EOh dear, B7what can I do Ababy's in black, and B7I'm feeling blue Tell me Eoh, Awhat can I Edo B7 ROCK AND ROLL MUSIC written and performed by Chuck Berry tab transcribed by Collins Crapo A7Just let me hear some of that...

Chorus

DRock and roll music Any old way you choose it It's got a Gback beat, you can't lose it DAny old time you use it It's A7gotta be rock and roll music If you wanna dance with Dme A7If you wanna dance with Dme

Verse 1

I have no kick against Amodern jazz A7 Unless you try to play it Dtoo darn fast I lose the beauty of a Gmelody Until it sounds just like a A7symphony That's why I go for that...

Verse 2

I took my love on over 'cross the tracks So she could hear a man a-wailin' sax I must admit they had a rockin' band And they were blowin' like a hurrican' That's why I go for that...

Verse 3

Way down south they gave a jubilee And Georgia folks, they had a jamboree They're drinkin' home brew from a wooden cup The folks dancin' got all shook up And started playin' that...

Verse 4

Don't get to hear 'em play a tango I'm in no mood to take a mambo It's way too early for the congo So keep on rockin' that piano So I can hear some of that... I'll Follow the Sun Lennon & McCartney AOne day, G7you'll look,D to see I've E7gone For toDmorrow may Bmrain, E7so, I'll A7follow the Dsun ASome day, G7you'll know,D I was the E7one But toDmorrow may Bmrain, sE7o, I'll A7follow the Dsun -D->AD7nd now the G7time has come, and Gmso my love I must Dgo D7 And though I G7lose a friend, Gmin the end you will Dknow, Em7Oh....oh..... AOne day, G7you'll find, Dthat I have E7gone But toDmorrow may Bmrain soE7, I'll A7follow the Dsun I'LL FOLLOW THE SUN by John Lennon and Paul McCartney

C F C

G One day F7 you'll look C to see I've D7 gone. For toCmorrow may Am/B rain, so D7 I'll G7 follow the C sun. F C G Some day F7 you'll know C I was the D7 one. But toCmorrow may Am/B rain, so D7 I'll G7 follow the C sun. C7 And now the F7 time has come And Fm6 so my love I must C go. C7 And though I F7 lose a friend, Fm6 In the end you will C know, Dm7 oh. G One day F7 you'll find C that I have D7 gone. For toCmorrow may Am/B rain so D7 I'll G7 follow the C sun. F C
  G       F7      C       D7
(e) |----3----|----5----|-----8-7-|-10------|
 B  |-3-------|-4-------|---8-----|---------|
 G  |---------|---------|---------|---------|
 D  |---------|---------|---------|---------|
 A  |---------|---------|---------|---------|
 E  |---------|---------|---------|---------|
1 2 3 4 1 2 3 4 1 2 3 4 1 2 3 4 Yes, toCmorrow may Am/B rain, so D7 I'll G7 follow the C sun. Chorus G One day F7 you'll find C that I have D7 gone. For toCmorrow may Am/B rain, so D7 I'll G7 follow the C sun. F C MR. MOONLIGHT By: The Beatles Album: Beatles for sale (1964), also Anthology 1, DC Transcribed by Shad0w Mr.......Mo-onlight, GYou came to me, one summer night CAnd from your beam you made my drGeam EmAnd from the word, you sent my girl CAnd from above you sent us lGove, CAnd now she is mine, GI think you're Efine Cause we Alove you,D Mr. MoonlightG. GMr. Moonlight, come again pleaGse, GHere I am on my knees begging if you Gplease, COn the nights you don't come my way, GI pray and pray for each Eday Cause we lAove you,D Mr.MoonligGht.

Solo

COn the nights you don't come my way, GI pray and pray for each Eday Cause we lAove you,D Mr.MoonligGht. GMr. Moonlight, Gcome again pleaseG, GHere I am on my kneesG begging if you Gplease, COn the nights you don't come my way, whoGa, I pray and pray for each Eday Cause we lAove you,D Mr. MoonligGht. MEDLEY: KANSAS CITY (Leiber/Stoller) /HEY HEY HEY HEY (Little Richard) performed by Little Richard tab transcribed by Collins Crapo I'm goin' to Kansas GCity Kansas City, here I come I'm goin' to Kansas CCity Kansas City, here I Gcome They've got Dcrazy women there and C I'm goin' down to get me Gsome Well, I might take a train, I might take a plane But if I have to walk, I'm goin' just the same I'm goin' to Kansas CCity Kansas City, here I Gcome They've got Dcrazy women there and C I'm goin' down to get me Gsome

Verse 2

Well bye, bye bye baby bye Wooo so long, bye bye baby I'm gone Well bye, bye bye baby bye

Verse 3

I'm a holl'rin' and screamin' Baby please come home Well, I'm a holl'rin' and screamin' Don't you leave me all alone Well, I'm a holl'rin' and I'm screamin' Baby please come home

Verse 4

Hey hey hey hey I miss my baby, I don't mean maybe I miss my baby, I don't mean maybe I miss my baby, I don't mean maybe I'll miss my baby until the day I die Eight Days A Week Words and Music by John Lennon and Paul McCartney Chords Used in this Song

EADGBE

Intro

D E

E|--0---------0-----0-------0--|-0--------0----0------0--------|
B|-10--------10----12------10--|12-------12---14-----12--------|
G|-11--------11----11------11--|13-------13---13-----13--------|
D|-12--------12----12------12--|14-------14---14-----14--------|
A|--------------------------- -|-------------------------------|
E|-----------------------------|-------------------------------|

G D

E|--0---------0-----0-------0--|-0--------0----0------0--------|
B|-15--------15----17------15--|10-------10---12-----10--------|
G|-16--------16----16------16--|11-------11---13-----11--------|
D|-17--------17----17------17--|12-------12---14-----12--------|
A|-----------------------------|-------------------------------|
E|-----------------------------|-------------------------------|

Verse 1

D E G D

Oo, I need your love, babe, guess you know it's true

D E G D

Hope you need my love, babe, just like I need you

Chorus 1

Bm G Bm E

Hold me, love me, Hold me, love me,

D E G D

I ain't got noth-in' but love babe, Eight Day's A Week

Verse 2

D E G D

Love you every day, girl, always on my mind

D E G D

One thing I can say, girl, love you all the time

Chorus 2

Bm G Bm E

Hold me, love me, Hold me, love me,

D E G D

I ain't got noth-in' but love girl, Eight Day's A Week

Bridge

A Bm

Eight days a week I love you

E G A

Eight days a week is not enough to show I care [Repeat Verse 1] [Repeat Chorus 1] [Repeat Bridge] [Repeat Verse 2] [Repeat Chorus 1]

G D

Eight Days A Week

G D

Eight Days A Week

G D

Eight Days A Week

Intro

   A                                 D               E
E|-5-------5-------0-------0-------|-----2-----------0-----------0--|
B|-5-------5-------2/5-----5---2---|---------3-----------2---0------|
G|---------------------------------|-2-----------2------------------|
D|---------------------------------|--------------------------------|
A|---------------------------------|--------------------------------|
E|---------------------------------|--------------------------------|
^ ^ ^ ^ ^ ^ ^ ^ Repeat this figure two more times, then play this:
   A                                 D               E
E|-5-------5-----5-0---0-----------|-----2-----------0--------------|
B|-5-------5-----5-5---5-------0---|---------3-----------2---4------|
G|---------------------------------|-2-----------2---------------1--|
D|---------------------------------|--------------------------------|
A|---------------------------------|--------------------------------|
E|---------------------------------|--------------------------------|
^ ^ ^ ^ ^ ^ ^ ^

Verse 1

HAold me close and D tEell me how you fAeel D TEell me love is rAeal D uEm um uAm Dum E

Verse 2

WAords of love you D wEhisper soft and tArue D DEarling I love you rAeal D uEm um

Solo

   A                                 D               E
   um                                um
E|---------------------------------|-----------------4-------7------|
B|---------------------------------|-----------------5-------9------|
G|---------------------------------|--------------------------------|
D|---------------------------------|--------------------------------|
A|---------------------------------|--------------------------------|
E|---------------------------------|--------------------------------|
   ^       ^       ^       ^         ^       ^       ^       ^

A D E

E|-9-------5-------0-------5-------|-2/5---------5---4/7-----7/9----| B|-10------5-------2-------5-------|-3/7---------7---5/9-----9/10---| G|---------------------------------|--------------------------------| D|---------------------------------|--------------------------------| A|---------------------------------|--------------------------------| E|---------------------------------|--------------------------------|
   ^       ^       ^       ^         ^       ^       ^       ^

A D E

E|-9-------5-------0-------5-------|-2/5---------5---4/7-----7/9----| B|-10------5-------2-------5-------|-3/7---------7---5/9-----9/10---| G|---------------------------------|--------------------------------| D|---------------------------------|--------------------------------| A|---------------------------------|--------------------------------| E|---------------------------------|--------------------------------|
   ^       ^       ^       ^         ^       ^       ^       ^

A D E

E|-9-------5-------0-------5-------|-2/5---------5---4/7-----7------| B|-10------5-------2-------5-------|-3/7---------7---5/9-----9------| G|---------------------------------|--------------------------------| D|---------------------------------|--------------------------------| A|---------------------------------|--------------------------------| E|---------------------------------|--------------------------------|
   ^       ^       ^       ^         ^       ^       ^       ^

A D E

E|-5-------5-------0-------0-------|-----2-----------0-----------0--| B|-5-------5-------2/5-----5---2---|---------3-----------2---0------| G|---------------------------------|-2-----------2------------------| D|---------------------------------|--------------------------------| A|---------------------------------|--------------------------------| E|---------------------------------|--------------------------------|
   ^       ^       ^       ^         ^       ^       ^       ^

A D E

E|---------------------------------|-----2-------2---0--------------| B|-2-------2-------2-------2-----2-|-----3-------3-------2---0---0--| G|-2-------2-------2-------2-----2-|-2------------------------------| D|-2-------2-------2-------2-----2-|--------------------------------| A|---------------------------------|--------------------------------| E|---------------------------------|--------------------------------|
   ^       ^       ^       ^         ^       ^       ^       ^

A D E

E|---------------------------------|-----2-------2---0--------------| B|-2-------2-------2-------2-----2-|-----3-------3-------2---0---0--| G|-2-------2-------2-------2-----2-|-2------------------------------| D|-2-------2-------2-------2-----2-|--------------------------------| A|---------------------------------|--------------------------------| E|---------------------------------|--------------------------------|
   ^       ^       ^       ^         ^       ^       ^       ^

A D E

E|---------------------------------|-----2-------2---0--------------| B|-2-------2-------2-------2-----2-|-----3-------3-------2---0---0--| G|-2-------2-------2-------2-----2-|-2------------------------------| D|-2-------2-------2-------2-----2-|--------------------------------| A|---------------------------------|--------------------------------| E|---------------------------------|--------------------------------|
   ^       ^       ^       ^         ^       ^       ^       ^

A D E

E|-5-------5-------0-------0-------|-----2-----------0-----------0--| B|-5-------5-------2/5-----5---2---|---------3-----------2---0------| G|---------------------------------|-2-----------2------------------| D|---------------------------------|--------------------------------| A|---------------------------------|--------------------------------| E|---------------------------------|--------------------------------|
^ ^ ^ ^ ^ ^ ^ ^

Verse 3

LAet me hear you say D the wEords I long to hAear D DEarling when you're nAear D um um E uAm uDm E

Verse 4

WAords of love you D wEhisper soft and tArue D DEarling I love you rAeal D Eum um uAm uDm E

Coda

   A                                 D               E
   um                                um
E|---------------------------------|-----2-------2---0-----------0--|
B|-2-------2-------2-------2-------|-----3-------3-------2---0------|
G|-2-------2-------2-------2-------|-2------------------------------|
D|-2-------2-------2-------2-------|--------------------------------|
A|---------------------------------|--------------------------------|
E|---------------------------------|--------------------------------|
^ ^ ^ ^ ^ ^ ^ ^
A                                 D               E
   um                                Ah
E|-5-------5-------0---0---0-----0-|-----2-----------0-----------0--|
B|-5-------5-------2---5---5-------|---------3-----------2---0------|
G|---------------------------------|-2-----------2------------------|
D|---------------------------------|--------------------------------|
A|---------------------------------|--------------------------------|
E|---------------------------------|--------------------------------|
^ ^ ^ ^ ^ ^ ^ ^
   A                                 D               E
   Ah                                Ah
E|-5-------5-------0---0---0-----0-|-----2-----------0-----------0--|
B|-5-------5-------2---5---5-------|---------3-----------2---0------|
G|---------------------------------|-2-----------2------------------|
D|---------------------------------|--------------------------------|
A|---------------------------------|--------------------------------|
E|---------------------------------|--------------------------------|
Honey Dont by Perkins, as performed by the Beatles on live at the BBC. Verse 1. EWell how come you say you will when you wont CSay you do baby when you dont ETell me honey how do you feel CTell the truth now is love real

Chorus

but Bah-a honey dont Ewell honey dont Eyeah honey dont well honey dont Ayeah honey dont Bsay you will when you wont Aah-a honey Edont

Verse 2

Same chord progression as verse 1) Well I luv you baby and I want you to know I like the way you wear your clothes Everything about you is so dog-gone sweet You got that sand all over your feet

Chorus

Verse 3

Same chords as verse 1) Well I love you baby on a Saturday night Sunday morning it dont feel right You been out painting the town ah-a honey been steppin around

Chorus

Intro

   A                                 A       E
E|---------0-0-----0-----0-----0---|-0-0-----0----------------------|
B|---------0-0-----0-----0-----0---|-0-0-----3----------------------|
G|---------6/7-----6-----4-----2---|-2/4-----4----------------------|
D|---------------------------------|--------------------------------|
A|---------------------------------|--------------------------------|
E|---------------------------------|--------------------------------|
^ ^ ^ ^ ^ ^ ^ ^

Verse 1

AWhen I'm walking besDide hEer A People tell me I'm lGuckDy A BYes, I B7knoAw I'm a lE/Gucky guy A I remember the fiDrst tEime AI was lonely withoGut hDer A YBes I'm tB7hinAking aE/Gbout her nAow
   A                                 G
  Every little                      thing she does
E|-9-------------------------------|--9\7--------7-------7---7------|
B|-10------------------------------|-10\8--------8-------8---8------|
G|-9-------------------------------|--9\7--------7-------7---7------|
D|---------------------------------|--------------------------------|
A|---------------------------------|--------------------------------|
E|---------------------------------|--------------------------------|
^ ^ ^ ^ ^ ^ ^ ^

A

 she does for                      me yeah
E|-9-------------------------------|-7/9-------------7/9------------|
B|-10------------------------------|-8/10------------8/10-----------|
G|-9-------------------------------|-7/9-------------7/9------------|
D|---------------------------------|--------------------------------|
A|---------------------------------|--------------------------------|
E|---------------------------------|--------------------------------|
^ ^ ^ ^ ^ ^ ^ ^
  A                                  G
  And you know the                  things she does
E|-9-------------------------------|--9\7--------7-------7---7------|
B|-10------------------------------|-10\8--------8-------8---8------|
G|-9-------------------------------|--9\7--------7-------7---7------|
D|---------------------------------|--------------------------------|
A|---------------------------------|--------------------------------|
E|---------------------------------|--------------------------------|
^ ^ ^ ^ ^ ^ ^ ^
                                    A
  she does for                      me, woo
E|-9-------------------------------|-7/9-------------7/9------------|
B|-10------------------------------|-8/10------------8/10-----------|
G|-9-------------------------------|-7/9-------------7/9------------|
D|---------------------------------|--------------------------------|
A|---------------------------------|--------------------------------|
E|---------------------------------|--------------------------------|
^ ^ ^ ^ ^ ^ ^ ^

Verse 2

AWhen I'm with her I'm hDappEy JAust to know that she lGoves Dme A BYes, I B7knoAw that she lE/Goves me now A There is one thing I'm sDure Eof AI will love her forGeveDr A FBor I B7knoAw love will E/Gnever die A

Chorus

C Figu

AEvery little tGhing she does she does for Ame, yeah And you know the tGhings she does she does for Ame, woo

Solo

   A                                 D       E
E|---------0-0-----0-----0-----0---|-0-0-----0----------------------|
B|---------0-0-----0-----0-----0---|-0-0-----3----------------------|
G|---------6/7-----6-----4-----2---|-2/4-----4----------------------|
D|---------------------------------|--------------------------------|
A|---------------------------------|--------------------------------|
E|---------------------------------|---------------------0---2---4--|
^ ^ ^ ^ ^ ^ ^ ^
 A                                 G       D                  A
E|---------0-0-----0-----0-----0---|-3-------2----------------------|
B|---------0-0-----0-----0-----0---|-0-------3----------------------|
G|---------6/7-----6-----4-----2---|-0-------2----------------------|
D|---------------------------------|-0-------0----------------------|
A|-0-------------------------------|--------------------------------|
E|---------------------------------|--------------------------------|
   ^       ^       ^       ^         ^       ^       ^       ^

B B7 A E/G A

E|---------------------------------|--------------------------------| B|------3---------------3----------|-----------3-----2--------------| G|-4---------4-----2---------2-----|------4----------2--------------| D|---------------------------------|-6---------------2--------------| A|---------------------------------|--------------------------------| E|---------------------------------|--------------------------------|
   ^       ^       ^       ^         ^       ^       ^       ^

A D E

E|---------0-0-----0-----0-----0---|-0-0-----0----------------------| B|---------0-0-----0-----0-----0---|-0-0-----3----------------------| G|---------6/7-----6-----4-----2---|-2/4-----4----------------------| D|---------------------------------|--------------------------------| A|---------------------------------|--------------------------------| E|---------------------------------|--------------------------------|
^ ^ ^ ^ ^ ^ ^ ^

Chorus

C Figu

AEvery little tGhing she does she does for Ame, yeah And you know the tGhings she does she does for Ame, woo

Coda

   A                                 D       E
                                                       Every little
E|---------0-0-----0-----0-----0---|-0-0-----0----------------------|
B|---------0-0-----0-----0-----0---|-0-0-----3----------------------|
G|---------6/7-----6-----4-----2---|-2/4-----4----------------------|
D|---------------------------------|--------------------------------|
A|---------------------------------|--------------------------------|
E|---------------------------------|--------------------------------|
^ ^ ^ ^ ^ ^ ^ ^
   A                                 D       E
  thing                                                Every little
E|---------0-0-----0-----0-----0---|-0-0-----0----------------------|
B|---------0-0-----0-----0-----0---|-0-0-----3----------------------|
G|---------6/7-----6-----4-----2---|-2/4-----4----------------------|
D|---------------------------------|--------------------------------|
A|---------------------------------|--------------------------------|
E|---------------------------------|--------------------------------|
I DON'T WANT TO SPOIL THE PARTY- The Beatles I don't waCnt to spoil the party so I'll go I would hate my disappointment to sGhow There's noAmthing for me hEere so IDm7 will disappeG7ar If she tuCrns up while I'm gBone please let me knCow I've had a drink or two and I don't care there's no fun in what I do if she's not there I wonder what went wrong I've waited far too long I think I'll take a walk and look for her

Chorus

Though tonCight she's made me sad Am7I stiD7ll lFove hGer If I fCind her I'll be glad Am7I stD7ill loFve hGer I don't want to spoil the party so I'll go I would hate my disappointment to show There's nothing for me here so I will disappear If she turns up while I'm gone please let me know ...SOLO, CHORUS I've had a drink or two and I don't care there's no fun in what I do if she's not there I wonder what went wrong I've waited far too long I think I'll take a walk and look for her Date: Sat, 16 Dec 1995 21:55:35 -0600 From: Chris Sears I DON'T WANT TO SPOIL THE PARTY The Beatles Beatles for Sale, 1964 intro/outro:

G G7 G6 D7sus4 Dm7 Dm7sus2 D Dsus2 D7 G

-3- -1- -0- -3- -1- -0- -2- -0- -2- -3- -3- -3- -3- -1- -1- -1- -3- -3- -1- -3- -0- -0- -0- -2- -2- -2- -2- -2- -2- -0- -0- -0- -0- -0- -0- -0- -0- -0- -0- -0- -2- -2- -2- --- --- --- --- --- --- -2- -3- -3- -3- --- --- --- --- --- --- -3- GI don't want to spoil the party so I'll go I would Ghate my disappointment to Dshow There's nEmothing for me Bhere so AmI will disapD7pear If she Gturns up while I'm Fgone please let me Gknow GI've had a drink or two and I don't care There's no Gfun in what I do if she's not Dthere I Emwonder what went Bwrong I've Amwaited far too D7long I Gthink I'll take a Fwalk and look for Gher Though toGnight she's made me sad Em7I A7still Clove Dher If I Gfind her I'll be glad Em7I A7still Clove Dher GI don't want to spoil the party so I'll go I would Ghate my disappointment to Dshow There's Emnothing for me Bhere so AmI will D7disappear If she Gturns up while I'm Fgone please let me Gknow

Solo

G D Em B Am D7

Though toGnight she's made me sad Em7I A7still Clove Dher If I Gfind her I'll be glad Em7I A7still Clove Dher GI've had a drink or two and I don't care There's no Dfun in what I do if she's not there I Emwonder what went Bwrong I've Amwaited far too D7long GI think I'll take a Fwalk and look for Gher What you're doing

Intro

(The following riff will be called Riff 1. It should be played throughout the song whenever the progression "D-G" is present.)
   D                                G
E|---------------------------------|--------------------------------|
B|---------------------------------|--------------------------------|
G|-----------------4---2-----------|--------------------------------|
D|-0-----------4-----------4---2---|---------2---0---2---4------0---|
A|---------------------------------|--------------------------------|
E|---------------------------------|--------------------------------|
^ ^ ^ ^ ^ ^ ^ ^

Verse 1

DLook what you're dGoing ID'm feeling bGlue and lonely would it Bmbe too much too aGsk of you What You're Doing to Dme G

Verse 2

DYou got me rGunning aDnd there's no fGun in it why should it Bmbe too much too aGsk of you What You're Doing to Dme G

Bridge

GI've been waiting hBmere for you wGondering what you're gBmonna do Eshould you need a love that's true it's Ame

Verse 3

DPlease stop your lGying yDou got me crGying girl why should it Bmbe too much too aGsk of you What You're Doing to Dme G

Solo

   D                                 G7
E|-5-----------------------5-------|-9-------7----------------------|
B|-7-----------------------7-------|-8-------6----------------------|
G|---------------------------------|--------------------------------|
D|---------------------------------|--------------------------------|
A|---------------------------------|--------------------------------|
E|---------------------------------|--------------------------------|
   ^       ^       ^       ^         ^       ^       ^       ^

D G7

E|-5---------------------------5---|-9---9---7---7------------------| B|-7---------------------------7---|-8---8---6---6------------------| G|---------------------------------|--------------------------------| D|---------------------------------|--------------------------------| A|---------------------------------|--------------------------------| E|---------------------------------|--------------------------------|
   ^       ^       ^       ^         ^       ^       ^       ^

G7 D

E|-2-------------------------------|--------------------------------| B|-----3-------------------3-------|--------------------------------| G|-------------4-------------------|-----4-------------------4------| D|---------------------------------|-------------5------------------| A|---------------------------------|-5------------------------------| E|---------------------------------|--------------------------------|
   ^       ^       ^       ^         ^       ^       ^       ^

D G7

E|---------------------------------|--------------------------------| B|---------------------------------|--------------------------------| G|-4-------------------------------|-2-------------------2----------| D|-----5---------------------------|-4-----------------------4------| A|-------------5---------------5---|--------------------------------| E|---------------------------------|--------------------------------|
^ ^ ^ ^ ^ ^ ^ ^

Bridge

GI've been waiting hBmere for you wGondering what you're gBmonna do Eshould you need a love that's true it's Ame

Verse 4

DPlease stop your lGying yDou got me crGying girl why should it Bmbe too much too aGsk of you What You're Doing to Dme

Coda

What you're dGoing to mDe What you're doGing to mDe

G D A

D G7 D G7

Verse 1

Well they tEook some honey From a tree Dressed it up and they called it me

Chorus

AEverybody's trying to be my baby EEverybody's trying to be my baby B7Everybody's trying to Abe my baby now E

Verse 2

Well, hEalf past nine Half past four Fifty women knocking on my door

Chorus

AEverybody's trying to be my baby EEverybody's trying to be my baby B7Everybody's trying to Abe my baby now E

Solo 1

   E
E|---------7---------------7-------|-7-----------7--------------7---|
B|---------0---------------0-------|-----0---------------7----------|
G|---------------------------------|---------7----------------------|
D|---------------------------------|--------------------------------|
A|---------------------------------|--------------------------------|
E|---------------------------------|--------------------------------|
^ ^ ^ ^ ^ ^ ^ ^
E|---------7-----------------------|-7-----------7-------7----------|
B|---------0-----------------------|---------------------0----------|
G|-------------------------7-------|-----7--------------------------|
D|---------------------------------|--------------------------------|
A|---------------------------------|--------------------------------|
E|---------------------------------|--------------------------------|
   ^       ^       ^       ^         ^       ^       ^       ^

A

E|---------12----------------------|-12---------12------------------| B|----------0----------------------|-------------0------------------| G|------------------------12-------|--------------------12------7---| D|---------------------------------|--------------------------------| A|---------------------------------|--------------------------------| E|---------------------------------|--------------------------------|
   ^       ^       ^       ^         ^       ^       ^       ^

E

E|---------7-----------------------|-7------------------------------| B|---------0-----------------------|-0------------------------------| G|-------------------------7-------|-------------7------------------| D|---------------------------------|--------------------------------| A|---------------------------------|--------------------------------| E|---------------------------------|---------------------4---5---6--|
^ ^ ^ ^ ^ ^ ^ ^
B7                                A
E|-----7---7---7---7---7---7-------|-5---5---5---5---5---5---5---5--|
B|-----7---7---7---7---7---7-------|-5---5---5---5---5---5---5---5--|
G|-----8---8---8---8---8---8-------|-6---6---6---6---6---6---6---6--|
D|-----9---9---9---9---9---9-------|-7---7---7---7---7---7---7---7--|
A|---------------------------------|-7---7---7---7---7---7---7---7--|
E|-7-------------------------------|-5---5---5---5---5---5---5---5--|
   ^       ^       ^       ^         ^       ^       ^       ^

E

E|---------0-----------------------|-----0--------------0-------0---| B|---------0-----------3-----------|------------3-------1-------1---| G|-----------------------------0---|-1------------------------------| D|---------------------------------|--------------------------------| A|---------------------------------|--------------------------------| E|---------------------------------|--------------------------------|
^ ^ ^ ^ ^ ^ ^ ^

Verse 3

Went oEut last night Didn't stay late 'Fore I got home I had nineteen dates

Chorus

AEverybody's trying to be my baby EEverybody's trying to be my baby B7Everybody's trying to Abe my baby now E

Solo 2

   E
E|---------3-----------3-----------|-3-----------3-------3----------|
B|---------3-----------3-----------|-3-----------3-------3----------|
G|---------------------------------|--------------------------------|
D|---------------------------------|--------------------------------|
A|---------------------------------|--------------------------------|
E|---------------------------------|--------------------------------|
^ ^ ^ ^ ^ ^ ^ ^
E|---------3-----------3-----------|-3-----------3-------3----------|
B|---------3-----------3-----------|-3-----------3-------3----------|
G|---------------------------------|--------------------------------|
D|---------------------------------|--------------------------------|
A|---------------------------------|--------------------------------|
E|---------------------------------|--------------------------------|
^ ^ ^ ^ ^ ^ ^ ^
   A
E|---------3---------------3-------|-3-----------3-------3----------|
B|---------2---------------2-------|-2-----------2-------2----------|
G|---------------------------------|--------------------------------|
D|---------------------------------|--------------------------------|
A|--0------------------0-----------|--------------------------------|
E|---------------------------------|--------------------------------|
   ^       ^       ^       ^         ^       ^       ^       ^

E

E|---------3-----------3-----------|-3-----------3------------------| B|---------3-----------3-----------|-3-----------3------------------| G|---------------------------------|--------------------------------| D|---------------------------------|--------------------------------| A|---------------------------------|--------------------------------| E|---------------------------------|--------------------------------|
   ^       ^       ^       ^         ^       ^       ^       ^

B7 A

E|---------9-----------9-----------|-7---5-------3------------------| B|---------7-----------7-----------|-5---5---------------5----------| G|---------------------------------|--------------------------------| D|---------------------------------|--------------------------------| A|---------------------------------|--------------------------------| E|---------------------------------|--------------------------------|
   ^       ^       ^       ^         ^       ^       ^       ^

E

E|---------0-----------------------|-----0----------------------------| B|---------0-----------0-----------|-------------3--------------------| G|---------------------0-------0---|-1--------------------------------| D|---------------------------------|----------------------------------| A|---------------------------------|----------------------------------| E|---------------------------------|----------------------------------|
^ ^ ^ ^ ^ ^ ^ ^
E|---------15------15---------15---|--------15------15--------------|
B|----------------------------12---|--------12------12------15------|
G|---------13------13--------------|------------------------13------|
D|---------------------------------|--------------------------------|
A|---------------------------------|--------------------------------|
E|---------------------------------|--------------------------------|
^ ^ ^ ^ ^ ^ ^ ^
E|---------15----------15----------|-15-----15------15--------------|
B|---------12----------------------|-12-----12------12------15------|
G|---------------------13----------|------------------------13------|
D|---------------------------------|--------------------------------|
A|---------------------------------|--------------------------------|
E|---------------------------------|--------------------------------|
   ^       ^       ^       ^         ^       ^       ^       ^

A

E|---------12----------12--12------|-12----------12------12---------| B|---------12----------12--12------|-12----------12------12---------| G|---------12----------12--12------|-12----------12------12---------| D|---------------------------------|--------------------------------| A|---------------------------------|--------------------------------| E|---------------------------------|--------------------------------|
^ ^ ^ ^ ^ ^ ^ ^
   E
E|---------0-----------------------|-----0--------------------------|
B|---------------------3-----------|-------------3------------------|
G|-----------------------------0---|-1------------------------------|
D|---------------------------------|--------------------------------|
A|---------------------------------|-------------------------0---1--|
E|-0-------------------------------|---------------------4----------|
   ^       ^       ^       ^         ^       ^       ^       ^

B7 A

E|-----2---------------2-----------|-----3------2---------------0---| B|-----0-------0-------0-------0---|-----0------0---------------0---| G|---------------------------------|---------------------2----------| D|---------------------------------|--------------------------------| A|-2-------------------------------|--------------------------------| E|---------------------------------|--------------------------------|
   ^       ^       ^       ^         ^       ^       ^       ^

E

E|---------0-----------------------|-----0---------------0---0---0--| B|---------0-----------3-----------|-------------3-------0---0---0--| G|-----------------------------0---|-1------------------------------| D|---------------------------------|--------------------------------| A|---------------------------------|--------------------------------| E|-0-------------------------------|--------------------------------|
^ ^ ^ ^ ^ ^ ^ ^

Verse 4

Went oEut last night Didn't stay late 'Fore I got home I had nineteen dates

Chorus

AEverybody's trying to be my baby EEverybody's trying to be my baby B7Everybody's trying to Abe my baby now E

Verse 5

Well they tEook some honey From a tree Dressed it up and they called it me

Chorus

AEverybody's trying to be my baby EEverybody's trying to be my baby B7Everybody's trying to Abe my baby now E

Coda

   E
E|-------------0---0-------0-------|-0---0---0---0-----------0------|
B|-----3-----------2-------2-------|-1-------0---0-----------0------|
G|-----4-----------3-------3-------|-2-------0---1-----------1------|
D|---------------------------------|--------------------------------|
A|---------------------------------|--------------------------------|
E|---------------------------------|--------------------------------|
   ^       ^       ^       ^         ^       ^       ^       ^

B7

E|---------------------------------|--------------------------------| B|-----------------------------3---|-------------------------3------| G|-----0-------1---------2/4-------|-2---0-------------------1------| D|---------------------------------|---------0---2-----------2------| A|---------------------------------|-------------------------2------| E|---------------------------------|--------------------------------|
^ ^ ^ ^ ^ ^ ^ ^