The Beatles - Money (That's What I Want) Chords

Main Riff
Main Riff
Main Riff
 
         
         
         
         
X
1
3
4
X
X
7 fr
         
         
         
         
1
3
4
X
X
X
9 fr
         
         
         
         
X
X
1
3
4
X
         
         
         
         
X
X
         
         
         
         
1
1
X
X
X
2 fr
         
         
         
         
X
X
1
3
4
X
7 fr
         
         
         
         
X
1
3
4
X
X
         
         
         
         
X
X
X
7 fr
         
         
         
         
X
X
         
         
         
         
X
1
2
X
X
5 fr
         
         
         
         
1
3
4
X
X
X
7 fr
         
         
         
         
X
X
1
3
4
X
         
         
         
         
X
X
5 fr
         
         
         
         
X
X
5 fr
         
         
         
         
X
X
No chord
Standard guitar tuning:
E
A
D
G
B
E
No capo
A---------------------------------|
E---0-0-3-0-5-3-0-3-0-5---5-5-3---|
e---------7-7-7-------5-5-5---------------|
B---------7-7-7-------5-5-5---------------|
G---------8-8-8-------6-6-6---------------|
D---9-9-9-9-9-9-7-7-7-7-7-7---------------|
A---9-9-9-9-9-9-7-7-7-7-7-7---------------|
E---7-7-7-7-7-7-5-5-5-5-5-5-0-0-3-0-5-3-0-| B5 E5The best thing in life are free A5 E5 You can keep them for the birds and bees B5 Now give me

Chorus

A5Money (that's what I want) That's what I wantE5 (that's what I want) That's what I wB5ant A5 (that's what I want) E5That's whA5at I wE5ant B5 E5You never give me a thrill A5 E5 No lovin' don't pay me bills B5 Now give me

Chorus

A5Money (that's what I want) That's what I wantE5 (that's what I want) That's what I wB5ant A5 (that's what I want) E5That's whA5at I wE5ant B5
A---------------------------------|
E---0-0-3-0-5-3-0-3-0-5---5-5-3---|
e---------7-7-7-------5-5-5---------------|
B---------7-7-7-------5-5-5---------------|
G---------8-8-8-------6-6-6---------------|
D---9-9-9-9-9-9-7-7-7-7-7-7---------------|
A---9-9-9-9-9-9-7-7-7-7-7-7---------------|
E---7-7-7-7-7-7-5-5-5-5-5-5-0-0-3-0-5-3-0-| B5 E5You never give me a thrill A5 E5 No lovin' don't pay me bills B5 Now give me

Chorus

A5Money (that's what I want) That's what I wantE5 (that's what I want) That's what I wB5ant A5 (that's what I want) E5That's whA5at I wE5ant B5 Repeat chorus till you get blue in the face chord definitions: