Ben Harper - Help Me Get Away Chords

 
No chord
Standard guitar tuning:
E
A
D
G
B
E
No capo
Guitar 1
e|----x--------4--------9--------7------------------------------------------------|
B|----9--------4--------10-------7------------------------------------------------|
G|----9--------5--------9--------8------------------------------------------------|
D|----9--------6--------11-------7------------------------------------------------|
A|----7--------6--------9--------9------------------------------------------------|
E|----7--------4--------9--------7------------------------------------------------|

Chorus

Guitar 2-Heavy Distortion
e|----x------x--x--------x--------x----x----------------------------------------|
B|----x------x--x--------x--------x----x----------------------------------------|
G|----9------11-13-------6--------13---11----X2---------------------------------|
D|----x------x--x--------x--------x----x----------------------------------------|
A|----7------9--11-------4--------11---9----------------------------------------|
E|----x------x--x--------x--------x----x----------------------------------------|
e|----12----12----12----12------------------------------------------------------|
B|----9-----9-----10----10------------------------------------------------------|
G|----9-----9-----9-----11------------------------------------------------------|
D|----9-----11----11----9-------------------------------------------------------|
A|----x-----x-----x-----x-------------------------------------------------------|
E|----x-----x-----x-----x-------------------------------------------------------|

Solo

Guitar 2
e|--------------------------------------------------------------------------------|
B|----9--9h10p9-----------------9------9--9h10p9----------------------------------|
G|--------------11--9---9--9-11------------------11--9--9--9-11-------------------|
D|-----------------------11------------------------------11-----------------------|
A|--------------------------------------------------------------------------------|
E|--------------------------------------------------------------------------------|