Bill Withers - Use Me Chords

 
         
         
         
         
2
7 fr
         
         
         
         
X
1
3
1
2
1
         
         
         
         
X
X
1
3
2
2
         
         
         
         
1
2
4
4
         
         
         
         
2
3
4
         
         
         
         
2
4

3 fr
         
         
         
         
X
3
2
1
5 fr
         
         
         
         
X
2
1
3
1
4
7 fr
         
         
         
         
X
1
3
1
2
X
7 fr
         
         
         
         
X
1
3
1
2
4
12 fr
         
         
         
         
1
3
1
1
4
1
         
         
         
         
2
3
         
         
         
         
1
2
4
3
         
         
         
         
No chord
Standard guitar tuning:
E
A
D
G
B
E
No capo
e|--3------------------------------------------------------------------------|
B|--3------------------------------------------------------------------------|
G|---------------------------------------------------------------------------|
D|-2-------------------------------------------------------------------------|
A|-2-------------------------------------------------------------------------|
E|---------------------------------------------------------------------------|
Chord #2: Some other version of E, I'll call Em9 just to give a name.
e|-2-------------------------------------------------------------------------|
B|-2-------------------------------------------------------------------------|
G|---------------------------------------------------------------------------|
D|-2-------------------------------------------------------------------------|
A|---------------------------------------------------------------------------|
E|---------------------------------------------------------------------------|
If you listen to the song, there is a combination of downstrokes and upstrokes. It will most easy to learn the progression by listening to the song. Chords will be in parenthesis, like Em7 Lyrics: MEm7y friends fEm9eel it's their appointed dEm7uty Em9 TEm7hey keep trying to tell Em9me all you want to do is uEm7se me Em9 But my answer yeah to all that use me stuff