Black Rebel Motorcycle Club - Evol Chords

 
No chord
Standard guitar tuning:
E
A
D
G
B
E
Capo on 3 fret
Intro/Verse
|--0-----------------------------------------------------------------|
|--8---------------7-------------------------------------------------|
|--6---------------7-------------------------------------------------|
|--7---------------7-------------------------------------------------|
|--0---------------5-------------------------------------------------|
|--------------------------------------------------------------------|

Chorus

|--0------0------0----0----------------------------------------------|
|--0------0------0----0----------------------------------------------|
|--6------2------4----6----------------------------------------------|
|--7------0------0----0----------------------------------------------|
|--0------2------5----4----------------------------------------------|
|--------------------------------------------------------------------|
Break/Lick
|--------------------------------------------------------------------|
|-8-7-5--------------------------------------------------------------|
|-------7-6-4---6----------------------------------------------------|
|-------------5------------------------------------------------------|
|--------------------------------------------------------------------|
|--------------------------------------------------------------------|