Blue Rodeo - Bulletproof Chords

 
         
         
         
         
         
X
3
2
1
3 fr
         
         
         
         
         
X
1
2
3
4
1
8 fr
         
         
         
         
         
1
3
4
2
1
1
3 fr
         
         
         
         
         
X
1
X
3
4
1
5 fr
         
         
         
         
         
3
2
1
1
1
4
10 fr
         
         
         
         
         
X
X
1
3
4
3

12 fr
         
         
         
         
         
X
4
3
1
2
1
3 fr
         
         
         
         
         
X
         
         
         
         
         
X
X
2
3
1
5 fr
         
         
         
         
         
X
1
3
4
2
1
10 fr
         
         
         
         
         
X
X
1
1
1
5 fr
         
         
         
         
         
X
X
3
2
1
2 fr
         
         
         
         
         
X
4
3
1
2
X
10 fr
         
         
         
         
         
1
3
4
1
1
1

12 fr
         
         
         
         
         
X
X
1
3
4
2
         
         
         
         
         
1
3
4
1
1
1
         
         
         
         
         
X
X
3
1
1
1
3 fr
         
         
         
         
         
X
X
1
3
4
2
8 fr
         
         
         
         
         
X
1
3
4
2
1
5 fr
         
         
         
         
         
X
4
3
1
2
X

A

variations
         
         
         
         
         
X
1
2
3
4
1
6 fr
         
         
         
         
         
1
3
4
2
1
1
         
         
         
         
         
X
1
4
4
4
X
         
         
         
         
         
X
1
X
3
4
1
3 fr
         
         
         
         
         
3
2
1
1
1
4
8 fr
         
         
         
         
         
X
X
1
3
4
3

10 fr
         
         
         
         
         
X
4
3
1
2
1
         
         
         
         
         
3
2
1
         
         
         
         
         
X
X
2
1
5 fr
         
         
         
         
         
X
3
1
1
1
X
5 fr
         
         
         
         
         
X
3
1
1
1
4
3 fr
         
         
         
         
         
         
         
         
         
         
X
2
3
1
5 fr
         
         
         
         
         
1
3
4
1
1
1
5 fr
         
         
         
         
         
X
X
1
1
1
8 fr
         
         
         
         
         
X
3
2
4
1
2 fr
         
         
         
         
         
X
1
4
4
4
7 fr
         
         
         
         
         
X
1
3
4
2

9 fr
         
         
         
         
         
X
4
3
1
2
X
12 fr
         
         
         
         
         
X
1
3
4
2
1
5 fr
         
         
         
         
         
X
         
         
         
         
         
1
3
4
2
1
1
5 fr
         
         
         
         
         
X
4
3
1
2
1
3 fr
         
         
         
         
         
X
X
1
2
4
3
         
         
         
         
         
X
X
3
2
1
1
8 fr
         
         
         
         
         
X
1
3
3
3
1
10 fr
         
         
         
         
         
4
3
1
1
1
X

10 fr
         
         
         
         
         
3
2
1
1
1
4
         
         
         
         
         
3
2
4
3 fr
         
         
         
         
         
1
3
4
2
1
1
         
         
         
         
         
2
1
3
4
3 fr
         
         
         
         
         
X
X
3
2
1
1
5 fr
         
         
         
         
         
X
X
1
3
4
3
7 fr
         
         
         
         
         
X
4
3
1
2
1

10 fr
         
         
         
         
         
X
1
2
3
4
X
10 fr
         
         
         
         
         
X
1
3
3
3
1
12 fr
         
         
         
         
         
3
2
1
1
1
4
         
         
         
         
         
X
2
1
         
         
         
         
         
X
5 fr
         
         
         
         
         
X
No chord
    
Standard guitar tuning:
E
A
D
G
B
E
No capo
Fill 1
-----------------------|
-----------------------|
-------------4-2-4~~---|
-----------------------|
----3~~----------------| -3~--------------------| Fill 1 x 2 C [AAug] Dm Tell me one more time again just like I didn't hear you Like I don't Fmknow whats goin through your AmiDim3nd I Cdo I've played the C/Esame games Amtoo You know its Fhard to stop even when you G4want Gto C [AAug] Dm Now the moon lights up your face and I can see you're crying You never Fmliked me to see you AcrDim3y its Ctrue I've done some C/Ecrying Amtoo You know the Fhardest part about its trying to G4hide it from Gyou FIt would be great to Ambe so strong CNever needed C/Eanybody C/Aelse to Amalong And we so Fscared of the silence and the G4tricks that we Guse Oh we're Ccareful and we're C/Ecunning but we're C/Aeasily Ambruised FI don't want to lie about it G4I'm Cnot bulletCproof C [AAug] Dm Well I've finally found a way to hide from all your glances Till the Fmwaiting game you AplDim3ay is Cthrough I can but C/Ewhat's the Amuse When Fall I really want to do is G4hide out with Gyou FWell it would be great to Ambe so strong CNever needed C/Eanybody's C/Ahelp to get Amalong And we so Fscared of the silence and the G4language that we Guse Oh we're Ccareful and we're C/Ecunning but we're C/Aeasily Ambruised FI don't want to kid about it G4I'm Gnot bulletCproof

Solo

C [AAug] Dm Tell me on more time again well I guess I didn't hear you And I don't know Fmall the secrets AthDim3at you keep Cinside Tried the C/Esame thing Amtoo But they Fall come pouring out of me when Im G4talking to Gyou FWell it would be great to Ambe so strong CNever needed C/Eanybody's C/Ahelp to carry Amon But I'm not Fwaking up each morning with forG4giveness I can Guse No I'm Ccareless and I'm C/Ecruel but I still C/Aeasily Ambruised And FI'm so tired of lying about it G4I'm Gnot bulletAmproof FI'm not going to lie about it G4I'm Gnot bulletCproof Fill1 x 2 Chords [AAug] : 002320 A#Dim3: -20440

C/E : 02-010

The chords may not be named correctly, esp A#Dim3.

Solo

F
------------------------------------------|
------------------------------------------|
-------------12--14-12--14~~T-------------|
-------12-15------------------------------|
-12-14------------------------------------|
------------------------------------------|
                G4          G
------------------------------------------|
--------12--13--15--13--12--12------------|
-- /14------------------------------------|
------------------------------------------|
------------------------------------------|
------------------------------------------|
                                 C
------------------------------------------|
--------12-----15p13p12-------------------|
-----13-------------------14p12--14~~-----|
--14--------------------------------------|
------------------------------------------|
------------------------------------------|
  C/E         C/A                Am
--12-12-12\-------------------------------|
--------------15-15-15-13-12-----15-13----|
---------------------------------------14-|
------------------------------------------|
------------------------------------------|
------------------------------------------|
  F
------------------------------------------|
------------13-------13-------------------|
--14-----14----12/14----14----------------|
------15-------------------15--12---------|
------------------------------------------|
------------------------------------------|
  G4          G                C
------------------------------------------|
------------------------------------------|
--/14--12---------------------------------|
-----------14-15---15--14--12--10~~-------|
------------------------------------------|
------------------------------------------|