Blur - Blur The Best Of Chords

 
         
         
         
         
X
1
2
3
5 fr
         
         
         
         
1
3
4
2
1
1
2 fr
         
         
         
         
X
1
1
1
4
         
         
         
         
X
X
1
2
2 fr
         
         
         
         
3
2
1
1
1
4
7 fr
         
         
         
         
X
X
1
3
4
3

9 fr
         
         
         
         
X
4
3
1
2
1
12 fr
         
         
         
         
X
1
3
3
3
1
         
         
         
         
X
3
2
1
3 fr
         
         
         
         
X
1
2
3
4
1
8 fr
         
         
         
         
1
3
4
2
1
1
3 fr
         
         
         
         
X
1
X
3
4
1
5 fr
         
         
         
         
3
2
1
1
1
4
10 fr
         
         
         
         
X
X
1
3
4
3

12 fr
         
         
         
         
X
4
3
1
2
1
3 fr
         
         
         
         
X
         
         
         
         
1
3
4
2
1
1
5 fr
         
         
         
         
X
4
3
1
2
1
3 fr
         
         
         
         
X
X
1
2
4
3
         
         
         
         
X
X
3
2
1
1
8 fr
         
         
         
         
X
1
3
3
3
1
10 fr
         
         
         
         
4
3
1
1
1
X

10 fr
         
         
         
         
3
2
1
1
1
4
         
         
         
         
3
2
4
3 fr
         
         
         
         
1
3
4
2
1
1
         
         
         
         
2
1
3
4
3 fr
         
         
         
         
X
X
3
2
1
1
5 fr
         
         
         
         
X
X
1
3
4
3
7 fr
         
         
         
         
X
4
3
1
2
1

10 fr
         
         
         
         
X
1
2
3
4
X
10 fr
         
         
         
         
X
1
3
3
3
1
12 fr
         
         
         
         
3
2
1
1
1
4

B

variations
         
         
         
         
X
1
2
3
4
1
6 fr
         
         
         
         
1
3
4
2
1
1
         
         
         
         
X
1
4
4
4
X
         
         
         
         
X
1
X
3
4
1
3 fr
         
         
         
         
3
2
1
1
1
4
8 fr
         
         
         
         
X
X
1
3
4
3

10 fr
         
         
         
         
X
4
3
1
2
1
         
         
         
         
X
1
3
4
2
1
7 fr
         
         
         
         
1
3
4
1
1
1
         
         
         
         
X
1
3
4
2
X
7 fr
         
         
         
         
X
X
3
1
1
1
9 fr
         
         
         
         
X
X
1
3
4
2
11 fr
         
         
         
         
X
4
3
1
2
X
         
         
         
         
X
2
3
1
5 fr
         
         
         
         
1
3
4
1
1
1
5 fr
         
         
         
         
X
X
1
1
1
8 fr
         
         
         
         
X
3
2
4
1
2 fr
         
         
         
         
X
1
4
4
4
7 fr
         
         
         
         
X
1
3
4
2

9 fr
         
         
         
         
X
4
3
1
2
X
12 fr
         
         
         
         
X
1
3
4
2
1
5 fr
         
         
         
         
X
         
         
         
         
1
3
4
1
1
1
         
         
         
         
X
X
3
1
1
1
3 fr
         
         
         
         
X
X
1
3
4
2
8 fr
         
         
         
         
X
1
3
4
2
1
5 fr
         
         
         
         
X
4
3
1
2
X

D

variations
3 fr
         
         
         
         
X
4
3
1
2
1
6 fr
         
         
         
         
X
1
2
3
4
1
         
         
         
         
X
X
1
2
4
3
3 fr
         
         
         
         
X
4
3
1
2
X
8 fr
         
         
         
         
4
3
1
1
1
X
8 fr
         
         
         
         
3
2
1
1
1
4

11 fr
         
         
         
         
1
3
4
2
1
1

G

variations
4 fr
         
         
         
         
1
3
4
2
1
1
4 fr
         
         
         
         
X
X
3
2
1
1
6 fr
         
         
         
         
X
X
1
2
4
3
         
         
         
         
3
2
1
1
1
4
8 fr
         
         
         
         
X
4
3
1
2
1
11 fr
         
         
         
         
X
1
2
3
4
X

11 fr
         
         
         
         
X
1
3
3
3
1

A

variations
         
         
         
         
X
1
2
3
4
1
6 fr
         
         
         
         
1
3
4
2
1
1
         
         
         
         
X
1
4
4
4
X
         
         
         
         
X
1
X
3
4
1
3 fr
         
         
         
         
3
2
1
1
1
4
8 fr
         
         
         
         
X
X
1
3
4
3

10 fr
         
         
         
         
X
4
3
1
2
1

C

variations
4 fr
         
         
         
         
X
1
2
3
4
1
         
         
         
         
X
4
3
1
2
1
4 fr
         
         
         
         
X
1
4
4
4
X
6 fr
         
         
         
         
4
3
1
1
1
X
6 fr
         
         
         
         
3
2
1
1
1
4
9 fr
         
         
         
         
1
3
4
2
1
1

11 fr
         
         
         
         
X
X
1
3
4
3
         
         
         
         
2
3
1
4 fr
         
         
         
         
X
4
3
1
2
1
7 fr
         
         
         
         
X
1
4
4
4
X
2 fr
         
         
         
         
X
X
1
2
4
3
4 fr
         
         
         
         
4
3
1
2
1
7 fr
         
         
         
         
X
1
3
3
3
1

9 fr
         
         
         
         
4
3
1
1
1
X
9 fr
         
         
         
         
3
2
1
1
1
4
12 fr
         
         
         
         
1
3
4
2
1
1
4 fr
         
         
         
         
X
         
         
         
         
X
X
1
3
2
2 fr
         
         
         
         
X
4
3
1
2
1
5 fr
         
         
         
         
X
1
2
3
4
1
5 fr
         
         
         
         
X
1
4
4
4
X
7 fr
         
         
         
         
4
3
1
1
1
X
7 fr
         
         
         
         
3
2
1
1
1
4

10 fr
         
         
         
         
1
3
4
2
1
1
12 fr
         
         
         
         
X
X
1
3
4
3
5 fr
         
         
         
         
X
X
7 fr
         
         
         
         
1
3
4
2
1
1
         
         
         
         
X
2
1
X
3
         
         
         
         
X
1
4
4
4
X
         
         
         
         
X
1
3
3
3
1
4 fr
         
         
         
         
4
3
1
1
1
X
4 fr
         
         
         
         
3
2
1
1
1
4

9 fr
         
         
         
         
X
X
1
3
4
3
11 fr
         
         
         
         
X
4
3
1
2
1
         
         
         
         
2
3
1
4
         
         
         
         
2
1
         
         
         
         
X
X
1
3
2
4
7 fr
         
         
         
         
X
1
3
1
4
1
         
         
         
         
2
1
4
7 fr
         
         
         
         
X
1
3
3
3
4

9 fr
         
         
         
         
4
3
1
1
1
2
12 fr
         
         
         
         
1
3
1
2
4
1

Dsus2

variations
         
         
         
         
X
X
3
4
2 fr
         
         
         
         
X
3
1
1
2
4
2 fr
         
         
         
         
X
2
1
1
3
4
5 fr
         
         
         
         
X
1
3
4
1
1
7 fr
         
         
         
         
4
1
1
1
X
X
9 fr
         
         
         
         
X
X
3
1
2
4

Cm7

variations
4 fr
         
         
         
         
X
1
3
1
2
1
9 fr
         
         
         
         
1
3
1
1
1
1
4 fr
         
         
         
         
X
1
X
2
4
3
         
         
         
         
X
2
1
3
1
4
4 fr
         
         
         
         
X
1
3
1
2
4
         
         
         
         
X
4
2
1

9 fr
         
         
         
         
1
3
1
1
4
1
11 fr
         
         
         
         
X
X
1
3
2
2

Asus4

variations
         
         
         
         
X
1
2
4
2 fr
         
         
         
         
X
1
1
2
4
5 fr
         
         
         
         
1
3
3
3
1
1
7 fr
         
         
         
         
X
1
2
3
4
9 fr
         
         
         
         
X
3
4
1
2
X
12 fr
         
         
         
         
X
1
3
3
4
1

         
         
         
         
X
5 fr
         
         
         
         
X

Cm

variations
4 fr
         
         
         
         
X
1
3
4
2
1
9 fr
         
         
         
         
1
3
4
1
1
1
         
         
         
         
X
4
2
1
X
X
         
         
         
         
X
4
3
1
2
X
4 fr
         
         
         
         
X
1
X
X
2
1
11 fr
         
         
         
         
X
X
1
3
4
2

4 fr
         
         
         
         
X
X

Esus4

variations
         
         
         
         
2
3
4
2 fr
         
         
         
         
1
2
3
4
4 fr
         
         
         
         
3
4
1
2
7 fr
         
         
         
         
X
1
3
3
4
1
7 fr
         
         
         
         
X
1
1
3
4
1
12 fr
         
         
         
         
1
3
3
3
1
1

         
         
         
         
         
         
         
         

F

variations
         
         
         
         
1
3
4
2
1
1
         
         
         
         
X
X
3
2
1
1
6 fr
         
         
         
         
X
4
3
1
2
1
4 fr
         
         
         
         
X
X
1
2
4
3
9 fr
         
         
         
         
X
1
3
3
3
1
11 fr
         
         
         
         
4
3
1
1
1
X

11 fr
         
         
         
         
3
2
1
1
1
4
         
         
         
         
2
3
3 fr
         
         
         
         
X
X
2
4
1
7 fr
         
         
         
         
X
1
3
4
2
1
2 fr
         
         
         
         
X
X
1
3
4
2
3 fr
         
         
         
         
X
3
2
4
1
4 fr
         
         
         
         
X
4
3
1
2
X

12 fr
         
         
         
         
1
3
4
1
1
1

B7

variations
         
         
         
         
X
1
3
1
4
1
6 fr
         
         
         
         
1
3
1
2
1
1
         
         
         
         
X
1
3
3
3
4
8 fr
         
         
         
         
X
X
1
3
2
4
3 fr
         
         
         
         
4
3
1
1
1
2
6 fr
         
         
         
         
1
3
1
2
4
1
         
         
         
         
X
2
1
3
4
         
         
         
         
X
1
3
1
4
1
7 fr
         
         
         
         
1
3
1
2
1
1
7 fr
         
         
         
         
1
X
2
4
3
X
2 fr
         
         
         
         
X
1
3
3
3
4
4 fr
         
         
         
         
4
3
1
1
1
2

7 fr
         
         
         
         
1
3
1
2
X
1
7 fr
         
         
         
         
1
3
1
2
4
1
9 fr
         
         
         
         
X
X
1
3
2
4
3 fr
         
         
         
         
1
4
2
3
1
1
5 fr
         
         
         
         
X
X
1
4
4
4
         
         
         
         
2
X
4
3
1
         
         
         
         
3
2
1
         
         
         
         
1
X
3
4
2
X
2 fr
         
         
         
         
X
X
4
3
2
1

7 fr
         
         
         
         
X
4
3
1
1
1

Em/D

variations
         
         
         
         
X
X
7 fr
         
         
         
         
X
X
12 fr
         
         
         
         
X
X

E

variations
3 fr
         
         
         
         
X
4
3
1
2
1
6 fr
         
         
         
         
X
1
2
3
4
1
         
         
         
         
X
X
1
2
4
3
3 fr
         
         
         
         
X
4
3
1
2
X
8 fr
         
         
         
         
4
3
1
1
1
X
8 fr
         
         
         
         
3
2
1
1
1
4

11 fr
         
         
         
         
1
3
4
2
1
1

Gm7

variations
4 fr
         
         
         
         
1
3
1
1
1
1
6 fr
         
         
         
         
X
X
1
4
2
3
         
         
         
         
1
X
1
1
1
X
4 fr
         
         
         
         
1
3
1
1
4
1
4 fr
         
         
         
         
1
3
1
1
4
X
9 fr
         
         
         
         
X
2
1
3
1
4

11 fr
         
         
         
         
X
1
3
1
2
X
11 fr
         
         
         
         
X
1
3
1
2
4
3 fr
         
         
         
         
1
3
4
1
1
1
5 fr
         
         
         
         
X
X
1
3
4
2
3 fr
         
         
         
         
X
X
3
1
1
1
         
         
         
         
1
X
2
3
4
         
         
         
         
3
1
X
X
X
         
         
         
         
2
1
3
4

7 fr
         
         
         
         
X
4
3
1
2
X
10 fr
         
         
         
         
X
1
3
4
2
1
3 fr
         
         
         
         
X
1
3
4
2
1
8 fr
         
         
         
         
1
3
4
1
1
1
         
         
         
         
X
3
1
X
X
         
         
         
         
X
4
1
2
X
8 fr
         
         
         
         
X
X
3
1
1
1
10 fr
         
         
         
         
X
X
1
3
4
2

12 fr
         
         
         
         
X
4
3
1
2
X
         
         
         
         
X
1
3
4
X
X
7 fr
         
         
         
         
1
3
4
X
X
X
9 fr
         
         
         
         
X
X
1
3
4
X
         
         
         
         
X
X

C5

variations
4 fr
         
         
         
         
X
1
3
4
X
X
9 fr
         
         
         
         
1
3
4
X
X
X
11 fr
         
         
         
         
X
X
1
3
4
X
4 fr
         
         
         
         
X
X
         
         
         
         
X
X
1
2
X
5 fr
         
         
         
         
X
1
3
4
X
X
10 fr
         
         
         
         
1
3
4
X
X
X
         
         
         
         
1
1
X
X
X
2 fr
         
         
         
         
X
X
1
3
4
X
7 fr
         
         
         
         
X
1
3
4
X
X
         
         
         
         
X
X
X
7 fr
         
         
         
         
X
X
         
         
         
         
X
1
2
X
X
5 fr
         
         
         
         
1
3
4
X
X
X
7 fr
         
         
         
         
X
X
1
3
4
X
         
         
         
         
X
X
5 fr
         
         
         
         
X
X
5 fr
         
         
         
         
X
X

D

variations
4 fr
         
         
         
         
X
1
2
3
4
1
         
         
         
         
X
4
3
1
2
1
4 fr
         
         
         
         
X
1
4
4
4
X
6 fr
         
         
         
         
4
3
1
1
1
X
6 fr
         
         
         
         
3
2
1
1
1
4
9 fr
         
         
         
         
1
3
4
2
1
1

11 fr
         
         
         
         
X
X
1
3
4
3

A

variations
4 fr
         
         
         
         
1
3
4
2
1
1
4 fr
         
         
         
         
X
X
3
2
1
1
6 fr
         
         
         
         
X
X
1
2
4
3
         
         
         
         
3
2
1
1
1
4
8 fr
         
         
         
         
X
4
3
1
2
1
11 fr
         
         
         
         
X
1
2
3
4
X

11 fr
         
         
         
         
X
1
3
3
3
1

G

variations
         
         
         
         
1
3
4
2
1
1
         
         
         
         
X
X
3
2
1
1
6 fr
         
         
         
         
X
4
3
1
2
1
4 fr
         
         
         
         
X
X
1
2
4
3
9 fr
         
         
         
         
X
1
3
3
3
1
11 fr
         
         
         
         
4
3
1
1
1
X

11 fr
         
         
         
         
3
2
1
1
1
4

Dsus4

variations
         
         
         
         
X
X
1
3
4
2 fr
         
         
         
         
X
3
4
1
2
X
5 fr
         
         
         
         
X
1
3
3
4
1
5 fr
         
         
         
         
X
1
1
3
4
1
10 fr
         
         
         
         
1
3
3
3
1
1
10 fr
         
         
         
         
1
1
3
4
1
1

12 fr
         
         
         
         
X
X
1
3
4
4
         
         
         
         
2
1
3
1
4
X
         
         
         
         
3
2
1
3 fr
         
         
         
         
1
3
1
2
1
4

Fm

variations
         
         
         
         
1
3
4
1
1
1
4 fr
         
         
         
         
X
X
1
3
4
2
         
         
         
         
X
X
3
1
1
1
9 fr
         
         
         
         
X
1
3
4
2
1
6 fr
         
         
         
         
X
4
3
1
2
X
         
         
         
         
X
1
3
1
2
1
7 fr
         
         
         
         
1
3
1
1
1
1
         
         
         
         
X
1
X
2
4
3
         
         
         
         
X
1
2
3
7 fr
         
         
         
         
1
X
1
1
1
X
2 fr
         
         
         
         
X
1
3
1
2
4

7 fr
         
         
         
         
1
3
1
1
4
1
9 fr
         
         
         
         
X
X
1
3
2
2
12 fr
         
         
         
         
X
2
1
3
1
4
         
         
         
         
X
         
         
         
         
X
X
3
2
1
3 fr
         
         
         
         
X
X
1
4
4
4
         
         
         
         
1
X
3
4
2
X
         
         
         
         
1
4
2
3
1
1
8 fr
         
         
         
         
X
1
3
2
4
1
         
         
         
         
1
4
3
2

5 fr
         
         
         
         
X
4
3
1
1
1
         
         
         
         
X
         
         
         
         

Gm

variations
4 fr
         
         
         
         
1
3
4
1
1
1
6 fr
         
         
         
         
X
X
1
3
4
2
4 fr
         
         
         
         
X
X
3
1
1
1
         
         
         
         
4
2
1
X
X
X
8 fr
         
         
         
         
X
4
3
1
2
X
11 fr
         
         
         
         
X
1
3
4
2
1
No chord
Standard guitar tuning:
E
A
D
G
B
E
Capo on 1 fret
ABeetlebum, Cwhat you done? FShe's a gun, Gnow what you done? BBeetlebum AGet nothing done, Cyou beetlebum FJust get numb, Gnow what you done BBeetlebum A And when she lets me slip aCway She Bmturns me on and Amall my violence Fgone Nothing is Amwrong, I just Fslip away And FmI am Cgone NoBmthing is wrong Am She Fturns me on AmI just Fslip away and FmI am Cgone ABeetlebum, Cbecause your young FShe's a gun, Gnow what you done? BBeetlebum AShe'll suck your thumb, Cshe'll make you come FCause she's your gun, Gnow what you done? BBeetlebum A And when she lets me slip aCway She Bmturns me on and Amall my violence Fgone Nothing is Amwrong, I just Fslip away And FmI am Cgone There's Bmnothing wrong Am She Fturns me on AmI just Fslip away and FmI am... AHe's on, he's on, he's on it CHe's on, he's on, he's on it FHe's on, he's on, he's on it GHe's on, he's on, he's Bon it...
E -----------------------------|
B --10-------------------------|
G -----9\(8)/9\(8)/9-----------|
D -------------------10-9-7----|
A --------------------------5--|
E -----------------------------|
2. Song 2

Intro

E-----------------------------|----------------------------------|
B-----------------------------|----------------------------------|
G-----------------------------|------------------17--17--17--17--|
D-----------------------------|--13--13--15--17--17--17--17--17--|
A---15--15--------13--13--13--|--11--11--13--15--15--15--15--15--|
E---13--13--------11--11--11--|----------------------------------|
E----------------------------------|----------------------------------||
B----------------------------------|----------------------------------||
G----------------------------------|--13--13--15--17--17--17--17--17--||
D----------------------------------|--13--13--15--17--17--17--17--17--||
A--------15--15--------13--13--13--|--11--11--13--15--15--15--15--15--||
E---(0)--13--13--------11--11--11--|----------------------------------|| Main 8x
E---16--16--16--16--16--16--16--16--16--16--||
B-------------------------------------------||
G---13--13--13--13--13--13--13--13--13--13--||
D-------------------------------------------||
A-------------------------------------------||
E-------------------------------------------||
Verses 4x
E-----------------------------|----------------------------------||
B-----------------------------|----------------------------------||
G-----------------------------|------------------17--17--17--17--||
D-----------------------------|--13--13--15--17--17--17--17--17--||
A---15--15--------13--13--13--|--11--11--13--15--15--15--15--15--||
E---13--13--------11--11--11--|----------------------------------||

Chorus 16x

E---16--16--16--16--16--16--16--16--16--16--||
B-------------------------------------------||
G---13--13--13--13--13--13--13--13--13--13--||
D-------------------------------------------||
A-------------------------------------------||
E-------------------------------------------||
Outro 8x Ending * = Fill 1 Gtr. 2 (dist) B ---21--21-- ** = Fill 2, first verse first time Gtr. 2 (dist) E --16--|
B ------|
G --13--| *** = Fill 3 13th time in chorus 2x, first 2x of outro Gtr. 3 (dist), bass in live version E --4\1--4\1--4-4-6-8---8\-- **** = Fill 4 last 2x of outro Gtr. 3 (dist), bass in live version E --4\1--4/8--------4\1/4\1/8------ + = Gtr. 2 plays Main Rhythm of Main, Chorus, and Outro (e = 8th, s = 16th):
    e   e   e   s   s   e   e   e   s   s
E---16--16--16--16--16--16--16--16--16--16--||
B-------------------------------------------||
G---13--13--13--13--13--13--13--13--13--13--||
Chords: I got my Fhead checked D G A C By a jumFbo jet D G A C It wasn't Feasy D G A C But nothing Fis, no D G A C F DWell I Gfeel Aheavy Cmetal F DAnd I'm Gpins and AI'm Cneedles F DWell I Glie and AI'm Ceasy FAll of the time and I'm Gnever sure why I Cneed you Pleased to meet ya I got my Fhead done D G A C When I Fwas young D G A C It's not my Fproblem D G A C It's not my Fproblem D G A C F DWell I Gfeel Aheavy Cmetal F DAnd I'm Gpins and AI'm Cneedles F DWell I Glie and AI'm Ceasy FAll of the time and I'm Gnever sure why I Cneed you Pleased to meet ya FYeah, yeDah G A C Yeah, yeah Yeah, yeah Oh, yeah 3. There's No Other Way
E ---------------------------5-5---|
B -(5)-/12-14-12-12\-3-----5-5-5---|
G -(5)-/12-14-12-12\-3-000-5-7-6---|
D ---------------------------7-7---|
A ---------------------------------|
E ---------------------------------|

Verse

   E       D               B    D
E ----0--|--------------|---2--|-2-----------|
B ----0--|-3-3-2-h3-p2--|---4--|-3--2-h3-p2--|
G ----1--|-2-2----------|---4--|-2-----------|
D -2--2--|-0-0----------|---4--|-0-----------|
A -2-----|--------------|---2--|-------------|
E -0-----|--------------|------|-------------|

Chorus

E

D

G

A

G

A

E

E ------------------------------|
B -3-p0-h3--------------2-h3-p2-|
G ---------4-0-4-0-h2-2---------|
D ------------------------------|
A ------------------------------|
E ------------------------------|

Ending

E -7-7-7-7--7-7-7-7--5-5--5\--2-2--7-7--|     -7--|
B -9-9-9-9--9-9-9-9--7-7--7\--4-4--7-7--|     -9--|
G -9-9-9-9--9-9-9-9--7-7--7\--4-4--7-7--|     -9--|
D -9-9-9-9--9-9-9-9--7-7--7\--4-4--7-7--| 4x  -9--|
A -7-7-7-7--7-7-7-7--5-5--5\--2-2--5-5--|     -7--|
E --------------------------------------|     ----|
Chords:

Intro

E7 - G - Dsus2 x4

E - D - B x2

Verse 1

You're taEking the fDun oBut of everything And makEing me rDun when BI don't want to think You're taEking the fDun oBut of everything EI don't want to thDink at aBll

Chorus

x2 EThere's no otDher way GThere's no otAher way GAll that you can Ado is watch thEem play

D G A

Interlude

E7 - G - Dsus2 x2

Verse 2

You're taEking the fDun oBut of everything You're maEking it clDear when BI don't want to think You're taEking me Dup when BI don't want to go up anyEmore I'm just watDching it aBll

Chorus

D G A

Interlude

E7 - G - Dsus2 x2

Bridge

EAhhhh....ID'll waGtch you pAlay EAhhhh....ID'll waGtch you pAlay

Interlude

E - D - B x4

Chorus x4

D G A

Outro

x4

E D B D

End on E 4. The Universal

Intro

A Cm7

AThis is the next cenCm7tury AWhere the universal'Cm7s free

E Bm

You can find it anywhere EYes the future's been Bmsold AEvery night we're Cm7gone AAnd to karaoke sonCm7gs EWe like to sing Bmalong EThough the words are Bmwrong It Asus4reallyA, Asus4reallyA, Asus4reallyA cAsus4ould hDappen E Yes it Asus4reallyA, Asus4reallyA, Asus4reallyA cAsus4ould hDappen E When the Cmdays they seem to fall through you

D Cm Bm E

Well just let them go No one here is alone Satellites in every home Yes the universal's here Here for everyone Every paper that you read Says tomorrow's your lucky day Well, here's your lucky day 5. Coffee & TV This intro is almost as the one on 13:
e/---------------------------|
B/---------------------------|
G/-----5-----7-10-12-9—10-7--|
D/---5---7-8-----------------|
A/-5-------------------------|
E/---------------------------|
In the song there are a few guitar fills:
GUITAR FILL 1:
e/-----------------|
B/-----------------|
G/-11-11-9-9-9-----|
D/-9—-9—-7-7-7-----|
A/-----------------|
E/-----------------|
GUITAR FILL 2:
e/-----------------|
B/-----------------|
G-4-4-4-6-11-9-----|
GUITAR FILL 3:
e/-----------------|
B/-12-10-9-5-------|
G/-----------------|
GUITAR FILL 4:

E A

e/-----------------------------| B/-----------------------------|
G/-13-13—-11-11--16-16--12-12--|
D/-11-11—-9—-9—--14-14--14-14--|
A/-----------------------------|
E/-----------------------------|
Graham play some strange chords during the verses. I saw the chords from a live gig that I recorded. But I'll write 13 after them. Here are the chords Graham plays in the song: B13Am13:(54x5xx) At least it’s what Graham plays, maybe.

E G B G A F

G13

F?: (133200) Play with a low thumb.

A13

C

A: (577655) Play with a low thumb.

Cm

Graham often plays the bar chords with a low thumb. He doesn't play this order all the way during the song. When you play the first two "13" chords then bend the G string a little .But I think he uses some sort of pedal that makes that "bending" sound. I’m not sure if Damon plays an Am or an A.

Verse 1

BDo you feel like a chain store? AmPractically EflGooreAd F GOne of many Fzeros AKicked around Cbored BYour ears are full, but you're empty AmHolding out your EheGart A F GTo people who never Freally ACare how you Aare (GUITAR FILL 2)

Chorus

So give me CmCoffee & TV BHiB13storAy G A F I've Cmseen so much I'm EgoBing blind G A F And I'm Abraindead virtuaBllB13y 'Cos CmSociability It's BhaB13rd enough for AmeG A F CmTake me away from this EbiBg bad world G A F And Aagree to marry Dme So we can start Aover again

Verse 2

BDo you go to the country? It Amisn't very EfaGr A F GThose people there will Fhurt you A'Cos of who you Care BYour ears are full of the language There's Amwisdom there you're EsuGre A F G'Til the words start Fslurring AAnd you can't find the Adoor (GUITAR FILL 2)

Chorus

So give me CmCoffee & TV BHiB13storAy G A F I've Cmseen so much I'm EgoBing blind G A F And I'm Abraindead virtuaBllB13y 'Cos CmSociability It's BhaB13rd enough for AmeG A F CmTake me away from this EbiBg bad world G A F And Aagree to marry Dme So we can start Aover again

Solo

more like the live version):

B Am E G F A C

e/-----------------------------------------------------------|
B/-12~~----------------17~~-15~~-----------------------------|
G/------11h13-14---------------------------------------------|
D/---------------14~~------------15b17--15-15^---------------|
A/-----------------------------------------------------------|
E/-----------------------------------------------------------|
   B   Am       E         G   F   A   A
e/-----------------------------------------------------------|
B/-----------------------------------------------------------|
G/------9-11-11-9b11-11-9-------------------4-4-4-6-11-9-----|
D/-5b7---------------------9~~9~~-12~--14~~--------(17~~)----|
A/-----------------------------------------------------------|
E/-----------------------------------------------------------|
The 17 in brakets is what guitar 3 plays. ~= vibrate

Chorus

So give me CmCoffee & TV BHiB13storAy G A F I've Cmseen so much I'm EgoBing blind G A F And I'm Abraindead virtuaBllB13y 'Cos CmSociability It's BhaB13rd enough for AmeG A F CmTake me away from this EbiBg bad world G A F And Aagree to marry Dme So we can start Aover again
   B
e/------------------------------|
B/------------------------------|
G/------------------------------| This is played after Graham sings
D/------------------------------| "Aah, we can start over again"
A/-6-7-6-7-9-7-6--6-7-6-7-9-7---|
E/------------------------------|
DAah, we can start Aover again DAah, we can start Aover again DAah, we can start Aover again DAah, we can start Aover again ALTERNATE TABS:
e ---------------------------------------------------------------|
B ------------------------------------------------7-7--5-5-5-5-5-|
G --8-8--8-9-8--8-9-8--8-9-8-8--------------------6-6--4-4-4-4-4-|
D --9-9--9-9-9--9-9-9--9-9-9-9-----------------------------------|
A --6-6--6-6-6--6-6-6--6-6-6-6-----------------------------------|
E --7-7--7-7-7--7-7-7--7-7-7-7--5-5--5-5-5-----------------------|
e ------------------------------------------------------|
B ------------------------------------------------------|
G -4-4--4-4-4--2-2--2-2-2--7-7--7-7-7--10-10--10-10-10--|
D -5-5--5-5-5--3-3--3-3-3--8-8--8-8-8--11-11--11-11-11--|
A -2-2--2-2-2--0-0--0-0-0--5-5--5-5-5---8--8---8--8--8--|
E -3-3--3-3-3--1-1--1-1-1--6-6--6-6-6---9--9---9--9--9--|
6. Parklife
Intro + Verse riff;
                                    E     G
e|-0-----0--0-----0--0-----0------0-----0-----|
b|-0-----0--0-----0--0-----0------14----0-----|
g|-13----13-13----13-13----13-----14----9-----|
d|-14----14-14----14-14----14-----0-----9-----|
a|-14----14-14----14-14----14-----------------|
e|-0-----0--0-----0--0-----0------------------|
EConfidence is the preference for the habEsus4itual voyeuEr of what is known as

Esus4

EAnd morning setup can be avoided if you take a route straigEsus4ht through Ewhat is known as (ParkliEsus4fe) EJohn's got brewer's droop he gets intimidated by the dirty pEsus4igeons they Elove a bit of it (PaEsus4rklife) EWho's that gut lord marching...you shouEsus4ld cut down on your porklife Emate...get some Esus4exercise

Chorus

EAll tBhe peoBple ESo manCy people B They Gall Fgo haEmnd in hand CHand in hand throughtAsus4 their pAarkB7life B7 I get up when I want, except on Wednesdays when I get rudely awaken by the dustmen I put my trousers on, have a cup of tea, and I think about leaving the house I feed the pigeons, I sometimes feed the sparrows too it gives me a feeling of enormous well being And then I'm happy of rht rest of the day safe in the knowledge there will always be a bit of my heart devoted to it

Chorus

It's got nothing to do with your Vorsprung Durch Technic you know And it's got nothing to do with you joggers who go round and round and round

Chorus

7. End Of A Century GAnts in the carpG7Met EmDirty little moEm/Dnsters EEating all the morsels D BmPicking up the rubbish C GGive her efferveG7Mscence She needEms a little sparkle Em/D EGood morning TV D You're lookinBmg so healthy C

Chorus

EmWe all say Don't want Dto be alone EmWe wear the same clothes D'Cos we feel the same EmWe kiss with dry lips DWhen we say goodnight C End of the century......Cits nothing special GSex on the TVG7M EmEverybody's at iEm/Dt EAnd the mind gets dirty D BmWhen you get clo ser tCo thirty GGives her a cuddG7Mle EmThey're glowing in a huddle Em/D EGood night TV D You're all mBmade up And you're looking like me

Chorus

GCan you Feat hGer yFes yGou caFn G

Chorus

8. No Distance Left To Run

Intro

D -------------------------|
A -------------------------|
F ---6/--------------------|
C ---7/--------------------|
G ---------9^--------------|
D ------0------0--0-0---0--|
D --7--7--7--7--7--7--7--7--7--5--4--2--4--2--7--7--7^9--7^9----|
A --9--9--9--9--9--9--9--9--9--7--5--4--5--4--9--9--9----9------|
F --------------------------------------------------------------|
C --------------------------------------------------------------|
G --------------------------------------------------------------|
D --------------------------------------------------------------|
D --7^9--7--------7----7--7--7----------------------------------------------|
A --9-------9-------8--7--7--7------5--8---1--1-1-----------------------9^--|
F -------------8-------8--8--8--2-2-6--9---0--0-0---------------------------|
C ------------------------------2-2-7--10------------6/---------------------|
G ------------------------------0-0-0----------------7/----9^-9^-9^-9^------|
D -------------------------------------------------0-----0------------------|
D -------------------------------------------------------------------------|
A -------5---------5-------7---7---5----------5---------5-------7---7---5--|
F ----6--6--4---6--6--4----7---6---4-------6--6--4---6--6--4----7---6---4--|
C -------------------------------------------------------------------------|
G -------------------------------------------------------------------------|
D -------------------------------------------------------------------------|
It's Eover You don't need to Cmtell me B E AI hope you're with someone who makes you Feel safe in your Gm7sleeping toBnight I won't Akill myself, trying to Cstay in your life EI got no distance left to run When you Esee me Please turn your bacCmk and walk away B E I Adon't want to see you Cos I know the dreams that Gm7you keep is Bwearing me When your Acoming down, think of Cme here EI got no distance left to run It's Eover, I knew it would Cmend this way B E I Ahope you're with someone who makes you feel That this Gm7life is the Bnight And it Asettles down, stays around CSpends more time with you EI got no distance left to run 9. Tender

Intro

E --------------------0----------------h-p-----------------|
B ----0-2-0-------0-2---1/2---------2-2-3-2---------3-1/2--|
G --2-------2-2-2-----------2---2-----------1---1-1-1-1/2--|
D ----------------------------2-------------2--------------|
A --------------------------------0------------------------|
E --------------------------------------------0------------|
E ----------------------0--------------h-p--------0---0--------|
B ----0-2-0---------0-2---1/2-------2-2-3-2---------0---0---2--|
G --2---2-----2---2-----------2-------------0-1-------------2--|
D ----------2-------------------2---------------2---------2----|
A --------------0-----------------0----------------------------|
E -------------------------------------------------------------|
E --------------------------------|
B --------2-2-----2--------2-2----|
G --2--2------2-2----2--2------2--|
D --------------------------------|
A --------------------------------|
E --------------------------------|
E ----------------------------0--------------------h-p---------|
B ----0-2-0-------------0-1/2---1/2-----------2-2-2-3-2--------|
G --2-------2---------2-----------------------2---------0-1----|
D ------------2---------------------2-----------------------2--|
A --------------0-0-0-----------------0-0-0-0------------------|
E -------------------------------------------------------------|
E -----------------------|
B --3-----3-1-2----------|
G ----1---1-1-2----------|
D ------2-2-----2--------|
A ----------------0-0-0--|
E -----------------------|
ATender is the night Glying by your Aside ATender is the touch of Gsomeone that you Alove too much ATender is the day the Gdemons go aAway ALord I need to find Gsomeone who can Aheal my mind ACome on, come on, come on, Dget Cthrough it ACome on, come on, come on, Cmlove's the Dgreatest thing ACome on, come on, come on, Dget Cthrough it ACome on, come on, come on, Cmlove's the Dgreatest thing CmThat we Dhave I'm Cmwaiting for that Dfeeling (I'm) CmWaiting for that Dfeeling AWaiting for that Dfeeling to Acome AOh my baby, oh my baby, oh E7why, oh Amy AOh my baby, oh my baby, E7oh why, Aoh my ATender is the ghost, the Gghost I love the Amost AHiding from the sun, Gwaiting for the Anight to come ATender is my heart for Gscrewing up my Alife ALord I need to find Gsomeone who can Aheal my mind

Solo

E ----------------------------------------5-3-0-2-3-2-0-------|
B -----------5----------------------2-------------------------|
G --5^-5^-5^---5^-0------h-p----------2-----------------5^-0--|
D -------------------h--0-2-0---------------------------------|
A ------------------0-2-------2-0-0-----0---------------------|
E ------------------------------------------------------------|
E -------------------|
B -------------------|
G -------h-p---------|
D ---h--0-2-0--------|
A --0-2-------2-0-0--|
E -------------------|
10. Girls & Boys

Gm C F E F F

Streets like a jungle So call the police Following the herd Down to Greece on holiday Love in the 90's Is paranoid On sunny beaches Take your chances, looking for GIRLS WHO ARE BOYS WHO LOVE BOYS LIKE THEY'RE GIRLS WHO DO GIRLS LIKE THEY'RE BOYS ALWAYS SHOULD BE SOMEONE YOU REALLY LOVE Avoiding all work Cos there's none available Like battery thinkers Count their thoughts on 1 2 3 4 5 fingers Nothing is wasted Only reproduced You get nasty blisters Du bist sehr schon But we haven't been introduced 11. Charmless Man

Intro

     A
e --------------------------------------------------|
B -----8b------5----------------8b------5-----------|
G --6-------x--6----7h6p7----6----------6----7h6p7--|
D --7-------x-------7--------7-------x-------7------|
A --------------------------------------------------|
E --------------------------------------------------|
              Ooo-ooo-wooo-ooo-ooh        Ooo-ooo-ooh

D A D

e ----------------0-------------------------0-------| B -----8r-8b---2--2----3-----3p2h3p2-----2--2----3--| G --6----------2-------2-------------2---2-------2--| D --7-----------------------------------------------| A --------------------------------------------------| E --------------------------------------------------|
                 E            E
|--------------------------|--4--4--4--4--4--4--4--4--|
|----3p2h3p2-----5----5----|--5--5--5--5--5--5--5--5--|
|------------2---4----4----|--4--4--4--4--4--4--4--4--|
|--------------------------|--------------------------|
|--------------------------|--------------------------|
|--------------------------|--------------------------|
|--8---8---8---8---8---8---8-----||--------------------||
|--10--10--10--10--10--10--10----||--------------------||
|--10--10--10--10--10--10--10----||*------------------*||
|--------------------------------||*------------------*||
|--------------------------------||--------------------||
|--------------------------------||--------------------||
I met him in a crowded room Where people go to drink away their gloom He sat me down and so began The story of a charmless man | Verse |
   A          Cm/5+         F                       Repeat 1x
||---------5---------------|---------------------2-----||
||---------5---------------|--2---------------2--------||
||*--6--6--6----5--5--5----|--3--3-4-3-----3----------*||
||*--7--7--7----6--6--6----|--4--4-4-4--4-------------*||
||---7--7--7----6--6--6----|---------------------------||
||---5--5--5----4--4--4----|---------------------------||
1. Educated the expensive way 2. He knows his Claret from his Beaujolais
   B5         C5           D5         E5            A5         D5
|------------------------|------------------------|------------------------|
|------------------------|------------------------|------------------------|
|--4--4--4----6--6--6----|--7--7--7----9--9--9----|-------------7--7--7----|
|--4--4--4----6--6--6----|--7--7--7----9--9--9----|--7--7--7----7--7--7----|
|--2--2--2----4--4--4----|--5--5--5----7--7--7----|--7--7--7----5--5--5----|
|------------------------|------------------------|--5--5--5---------------|
I think he'd like to have been Ronnie Kray But then, nature didn't
   A5
|-----9h10p9-10p9-10p9~-------|
|-----------------------------|
|-----------------------------|
|--7--------------------------|
|--7--------------------------|
|--5--------------------------|
make him that way (that way)

Bridge

   A          Cm/5+         F                       Repeat 1x
||---------5---------------|---------------------2-----||
||---------5---------------|--2---------------2--------||
||*--6--6--6----5--5--5----|--3--3-4-3-----3----------*||
||*--7--7--7----6--6--6----|--4--4-4-4--4-------------*||
||---7--7--7----6--6--6----|---------------------------||
||---5--5--5----4--4--4----|---------------------------||
1. Na na na na na na naah____ 2. Na na na na na na naah____

Chorus

             A
          ||---------------------------|
          ||------8b------5------------|
          ||*--6-------x--6----7h6p7---|
          ||*--7-------x-------7-------|
          ||---------------------------|
          ||---------------------------|
1. He thinks he's educated, 2. circles of____
                                                  D
 |--------------------------|----------------0-------|
 |-----8b------5------------|-----8r-8b---2--2----3--|
 |--6----------6----7h6p7---|--6----------2-------2--|
 |--7-------x-------7-------|--7---------------------|
 |--------------------------|------------------------|
 |--------------------------|------------------------|
1. airs those family shares Will protect him 2. friends Who just pretend that they like him
                  A       D                   E
 |-------------------0-------|---------------------------||
 |----3p2h3p2-----2--2----3--|----3p2h3p2----------------||
 |------------2---2-------2--|------------2-------------*||
 |---------------------------|--------------------------*||
 |---------------------------|----------------2----2-----||
 |---------------------------|----------------0----0-----||
1. that we'll respect him He moves in 2. He does the same to them
   E                          F
|--4--4--4--4--4--4--4--4--|--8---8---8---8---8---8---8-----|
|--5--5--5--5--5--5--5--5--|--10--10--10--10--10--10--10----|
|--4--4--4--4--4--4--4--4--|--10--10--10--10--10--10--10----|
|--------------------------|--------------------------------|
|--------------------------|--------------------------------|
|--------------------------|--------------------------------|
And when you put it all together, there's the model of a charmless man | Bridge | | Verse | Lyrics: He knows the swingers and their cavalry Says he can get in anywhere for free I began to go a little cross-eyed And from this charmless man I just had to hide (away) | Bridge | | Chorus | Lyrics: He talks at speed, he gets nosebleeds He doesn't see (Ooo-ooo-wooo-ooo-ooh) his days are tumbling Down upon him (Ooo-ooo-ooh) And yet he tries so hard to please He's just so keen (Ooo-ooo-wooo-ooo-ooh) for you to listen (Ooo-ooo-ooh) But no one's listening And when you put it all together, there's the model of a charmless man | Solo |
     A          Cm/5+
||---------5---------------|
||---------5---------------|
||*--6--6--6----5--5--5----|
||*--7--7--7----6--6--6----|
||---7--7--7----6--6--6----|
||---5--5--5----4--4--4----|
   F             Repeat 1X
|-------------5----------||------------------------|
|--2--6/---7-------------||--5--3-------7--5-------|
|--3-------------6------*||--------4----------6----|
|--4--------------------*||------------------------|
|------------------------||------------------------|
|------------------------||------------------------|
|---------------------12----|--0--0--0----0--0----0--|
|--9--7-----7----7/12-------|--0--0--0----0--0----0--|
|--------7------------------|--6--6--6----5--5----6--|
|---------------------------|--7--7--7----6--6----7--|
|---------------------------|------------------------|
|---------------------------|------------------------|
|-------------------------||
|----5--------------------||
|----6h7-6h7p6h7p6~-------||
|----7--------------------||
|-------------------------||
|-------------------------||
| Chorus | Lyrics : He thinks he's educated, airs those family shares (Ooo-ooo-wooo-ooo-ooh) Will protect him (Ooo-ooo-ooh), that you'll respect him And yet he tries so hard to please He's just so keen (Ooo-ooo-wooo-ooo-ooh) for you to listen (Ooo-ooo-ooh) But no one's listening And when you put it all together, there's the model of a charmless man | Bridge | | Outro |
   A      G          G     F        F       E       A
|------------------|---------------|---------------|--5----|
|------------------|---------------|---------------|--5----|
|------------------|---------------|---------------|--6----|
|--7-7-7--6-6-6-6--|--5-5-5-4-4-4--|--3-3-3-3-2-2--|--7----|
|--7-7-7--6-6-6-6--|--5-5-5-4-4-4--|--3-3-3-3-2-2--|--7----|
|--5-5-5--4-4-4-4--|--3-3-3-2-2-2--|--1-1-1-1-0-0--|--5----|
nanana nanana nanananaah nananananana naah 12. She's So High

Intro

E --3--| B --3--| G --0--| D --2--| A --3--| Main:
E ------2--------h-p---|
B ------3-------0-1-0--|
G ----2----------------| 3x
D --0---------2--------|
A --------0-3----------|
E ---------------------|
E ------------h-p----3---------------------|
B ------2----2-3-2-3-----------------------|
G ------2----------------------------------|
D ----2---------------------0-----0-----0--|
A --0------0------------0-2---0-2---0-2----|
E --------------------3--------------------|
DI see Cher face DEveryCday DI see Cher face AIt doesn't help Cme DSee Cher face DEveCryday DI see Cher face AIt doesn't help Cme DShe's Cso high (x3) AI want to crawl all Cover her DI think Cof her DEverCyday DI think Cof her AIt doesn't help Cme

Middle

D C

A C A G

DShe doesn't Ehelp Ame (x3) 13. Country House

G

ACity dweller successful Efella TBmhought to himself: "Oops, I've got a lot of money" I'Dm caught in a rDatBass race terminaDlly I'Am a professional cynic BuEt my heart's not in it I'Bmm paying the price of living life at the limit CaDught up in the DceBassntury's anxieDty It Epreys on him, he's getting thin Now he lAives in a house a very big house in the country Watching Dafternoon repeats and the food he eats in the cAountry He takes all manner of pills and piles up analyst bills in the cE7ountrEy Oh, it's like Dan animal farm that's the rural charm in the cAountryA He's got morning glory and life's a different story Everything's going Jackanory Touched with his own mortality He's reading Balzac, knocking back Prozac It's a helping hand that makes you feel wonderfully bland Oh, it's a century's remedy For the faint at heart A new start (Try the simple life) He lives in a house A very big house In the country He's got a fog in his chest So he needs a lot of rest In the country He doesn't drink, smoke, laugh Takes herbal baths In the country You should come to no harm On the animal farm In the country ABlow, blow me Eout, I am so sadD, I don't know whyA 14. To The End Intro/verse:
E|--10---10---10---10---10---12---12---12---12---12--|
B|--10---10---10---10---10---12---12---12---12---12--|
G|--11---11---11---11---11---12---12---12---12---12--|

Chorus

E|----------------------------------5--5/7-5-5--|
B|--3--5--3--5---8-7-5-3--------3-5-------------|
G|--4--6--4--6-----------4--4-6-----------------|
D|--5--7--5--7----------------------------------|
A|--5--7--5--7----------------------------------|
E|--3--5--3--5----------------------------------|
All those dirty words D They make us look so duEmmb Been drinking far too mDuch And neither of us mean wEmhat we say GYou aAnd I GCollapsedA in love And it looDsus4ks likDe we might have made it, E yes it looG9ks like we made it toA the end What happened to uDs Soon it will be gone Emforever Infatuated only with ourDselves And neither of us can thEmink straight anymore

Chorus x2

15. On Your Own Holy Bman tiptoed his Eway across the FGanges The Bsound of magic Emusic in his Fears VideBoed by a Abus load of Etourists F Shiny Bshellsuits on, and Edrinking lemoFnade Now, I've Bgot a funny Efeeling which I bought mail Forder From a Bman in a Etee-pee in CaliFfornia He Bsaid he once was that Agreat game show perEformer F Then he Bblew all his Emoney aFway, Eblew it all aFway So take me Bhome, don't leave me aElone I'm not that Fgood, but I'm not that Ebad No psycho Bkiller, hooligan gueErilla I dream to Friot, oh you should Etry it I'll eat paBrole get gold card Esoul Your joy of Flife is on a Eroll And we'll Ball be the Esame in the Fend Cos then you're on your Bown E FThen you're on your Bown E F Well, we Ball go happy Eday-glo in the Fdiscos The Bsound of magic Emusic in our Fbrains Someone Bstumbles to the Abathroom with the Ehorrors F Says BLord, give me time, for EI've jumped into Fspace I'm in Eouter Fspace 16. This Is A Low

Intro

   Em        Fm             G                A
E --------0---------2----------------0-----------------------|
B --------0-------2---2---2-----3-3----3----3/5-----5----5---|
G ------0-------3-------3------4---------4--4/6-----6----6---|
D ----2----------------------5--------------5/7---7----7---7-|
A --2--------4-----------------------------------------------|
E --0--------------------------------------------------------|

Dann

EAnd inBmto the sea go pretAty England anCmd me CAround the Bay of BBmiscay and home foEr tea Hit traffic on the DoggeBmr Bank AUp the Thames to find a taxi raCmnk CSail on by with Bmthe tide and Efall asleep And the radio says EThis is a Dlow EBut it wAmon'tBm hurt you EWhen you're alone it DwillE be there witAmh you Bm

C Bm7 E

Finding ways to stay solo

EOn the Tyne, Forth and CBmromarty AThere is a low in the high FortCmies And SatuCrdays locked away on Bmthe pier Not fastE enough dear On the MBmalin Head, BlackpoolA looks black and red And the QueCen she's gone round tBmhe bend Jumped off Land's End E

Chorus x2

17. For Tomorrow

B

CmHe's a tBwentieth century Aboy,B with Ghis hands on the Grails FTrying Cnot to be Dsick agaiFn and holding F7Mon for tEomorrowG CmLondon icBe cracks on a sAeamless Bline, GmHe's hanging on for dearGdim5 life FSo we hoCld each other tiDghtly anFd hF7Mold on foEr tomorrGow Singing Amin7la la lGa lGa lDa FHolding on for tGomorrow She's a twentieth century girl, with her hands on the wheel Trying not to make him sick again Seeing what she can borrow London's so nice back in your seamless rhymes, but we're lost on the Westway So we hold each other tightly and hold on for tomorrow Trying not to be sick again and holding on for tomorrow She's a twentieth centruy girl, hanging on for dear life So we hold each other tightly and hold on for tomorrow. 18. Music Is My Radar :00
E
e ---------------|
B -----3---------|
G --2s4-4s2s4-0--|
D ---------------|
A ---------------|
E ---------------|
E:02 [repeat to :43 solo]
e ---------------|
B ---------------|
G ---------------|
D ---------------|
A ---------------|
E --3-5-3-5s7-0--|
:12 - :42 EReally got me... :43 - :47
E
e ------------------------------|
B ------------------------------|
G -----------------4-4-7-4-7-9--|
D --------5-5-7-5-7-7-----------|
A --7-5-7-----------------------|
E ------------------------------|
:47 - :59
E
e ---------------------------7s12--|
B ----------8---8-7-8-7-8-10-------|
G --7-9-7-9---9--------------------|
D ---------------------------------|
A ---------------------------------|
E ---------------------------------|
1:00 -1:14 EI, don't stop me... 1:15

E

1:31 - 1:38
e ---------------|
B ---------------|
G ---------------|
D ---------------|
A ---------------|
E --3~~----------| 1:39 - 1:55 ETawny...
2:45

E

e ---------------| B ---------------| G --4-4-2-0-2-0--| D ---------------| A ---------------| E ---------------|

E

e ---------------|
B ---------------|
G ---------------|
D ---------------|
A ---------------|
E --3-5-3-5s7-0--|
2:58 - 3:12
E
e ------------------------------|
B ------------------------------|
G -----------------4-4-7-4-7-9--|
D --------5-5-7-5-7-7-----------|
A --7-5-7-----------------------|
E ------------------------------|
E
e ---------------------------7s12--|
B ----------8---8-7-8-7-8-10-------|
G --7-9-7-9---9--------------------|
D ---------------------------------|
A ---------------------------------|
E ---------------------------------|
3:14 - 3:29 EI, don't stop me... 3:30 - 3:15
E
e ----------------------------------------|
B ----------------------------------------|
G -----------------4-4-7-4-7-9--7-9-7-9---|
D --------5-5-7-5-7-7---------------------|
A --7-5-7---------------------------------|
E ----------------------------------------|
3:35 - EI, don't stop me...