Bob Marley - Talkin Blues Chords

 
         
         
         
         
X
X
1
3
2
2 fr
         
         
         
         
X
4
3
1
2
1
5 fr
         
         
         
         
X
1
2
3
4
1
5 fr
         
         
         
         
X
1
4
4
4
X
7 fr
         
         
         
         
4
3
1
1
1
X
7 fr
         
         
         
         
3
2
1
1
1
4

10 fr
         
         
         
         
1
3
4
2
1
1
12 fr
         
         
         
         
X
X
1
3
4
3
5 fr
         
         
         
         
X
X
         
         
         
         
X
1
2
3
5 fr
         
         
         
         
1
3
4
2
1
1
2 fr
         
         
         
         
X
1
1
1
4
         
         
         
         
X
X
1
2
2 fr
         
         
         
         
3
2
1
1
1
4
7 fr
         
         
         
         
X
X
1
3
4
3

9 fr
         
         
         
         
X
4
3
1
2
1
12 fr
         
         
         
         
X
1
3
3
3
1
         
         
         
         
2
3
1
4 fr
         
         
         
         
X
4
3
1
2
1
7 fr
         
         
         
         
X
1
4
4
4
X
2 fr
         
         
         
         
X
X
1
2
4
3
4 fr
         
         
         
         
4
3
1
2
1
7 fr
         
         
         
         
X
1
3
3
3
1

9 fr
         
         
         
         
4
3
1
1
1
X
9 fr
         
         
         
         
3
2
1
1
1
4
12 fr
         
         
         
         
1
3
4
2
1
1
4 fr
         
         
         
         
X

Fm

variations
         
         
         
         
1
3
4
1
1
1
4 fr
         
         
         
         
X
X
1
3
4
2
         
         
         
         
X
X
3
1
1
1
9 fr
         
         
         
         
X
1
3
4
2
1
6 fr
         
         
         
         
X
4
3
1
2
X
No chord
Standard guitar tuning:
E
A
D
G
B
E
No capo

D A E A

Intro

E:--2-(3)(2)--------0---------------0-------(0)--0------------------------
        B:--3-------(3)-----2-(3)(2)--------0------------2-(3)(2)-----------------
        G:--2----------(2)--2-------(2)-----1----(1)-----2-------(2)--------------
        D:--0---------------2----------(2)--2-(2)--------2----------(2)-----------
        A:--0---------------0---------------2------------0------------------------
        E:--x---------------0---------------0------------0------------------------

D A E A

         E:--2-(3)(2)--------0---------------0-------(0)--0----(5)--------------
        B:--3-------(3)-----2-(3)(2)--------0------------2-(3)----------------
        G:--2----------(2)--2-------(2)-----1----(1)-----2--------------------
        D:--0---------------2----------(2)--2-(2)--------2--------------------
        A:--0---------------0---------------2------------0--------------------
        E:--x---------------0---------------0------------0--------------------
Fm Yeah, oh yeFmah, no! D Cold groundD was my bAed last nighAt And rEock was my Epillow tAoo A D Cold groundD was my bAed last nighAt And rEock was my Epillow tAoo, yeahA

Chorus

I'm sayin tDalkin' bluDes, talkAin' blues A They say your fEeet is just too bEig for your shAoes A TDalkin' blDues, talkAin' blues A Your fEeet is just too bEig for your shAoes A DI've been down Don the roAck so long A EI seem to weaEr a permanent scrAew, yeah A DI've been down Don the roAck so long A EI seem to wear Ea permanent scrAew A

Bridge

BuAt I'm gonna sAtare Ein the Asun LeDt the rays sAhine iEn my eyAes DI'm gonna taAke aE just a Aone step mEore Cause I Dfeel like Dbombing a chAurch, now A Now that you kEnow that the prEeacher is lyiAng A So wDho's gonna staDy at homeA A When, whEen the freedom Efighters are fightAing A

Chorus

Talkin' blues, talkin' blues They say your feet is just too big for your shoes, whoa Talkin' blues, keep on, talkin' blues They say, you hear what they say, didn't you hear? Cold ground was my bed last night Rock stone, rock stone, rock stone was my pillow Cold ground was my bed last night And rock was my pillow too

Chorus

Sayin talkin' blues, talkin' blues I seem to wear a permanent, permanent screw Talkin' blues, talkin' blues They say your feet is just too big for your shoes