Bob Marley - Waiting In Vain Chords

Main Riff
Main Riff
Main Riff
 

A7M

variations
4 fr
         
         
         
         
         
1
4
2
3
1
1
6 fr
         
         
         
         
         
X
X
1
4
4
4
4 fr
         
         
         
         
         
1
X
3
4
2
X
3 fr
         
         
         
         
         
X
X
4
3
2
1
8 fr
         
         
         
         
         
X
4
3
1
1
1

D7M

variations
4 fr
         
         
         
         
         
X
1
X
3
4
2
         
         
         
         
         
X
4
3
1
1
1
4 fr
         
         
         
         
         
X
1
3
2
4
X
4 fr
         
         
         
         
         
X
1
3
2
4
1
8 fr
         
         
         
         
         
X
X
4
3
2
1
9 fr
         
         
         
         
         
1
4
2
3
1
1

11 fr
         
         
         
         
         
X
X
1
3
3
3

D

variations
4 fr
         
         
         
         
         
X
1
2
3
4
1
         
         
         
         
         
X
4
3
1
2
1
4 fr
         
         
         
         
         
X
1
4
4
4
X
6 fr
         
         
         
         
         
4
3
1
1
1
X
6 fr
         
         
         
         
         
3
2
1
1
1
4
9 fr
         
         
         
         
         
1
3
4
2
1
1

11 fr
         
         
         
         
         
X
X
1
3
4
3

E

variations
3 fr
         
         
         
         
         
X
4
3
1
2
1
6 fr
         
         
         
         
         
X
1
2
3
4
1
         
         
         
         
         
X
X
1
2
4
3
3 fr
         
         
         
         
         
X
4
3
1
2
X
8 fr
         
         
         
         
         
4
3
1
1
1
X
8 fr
         
         
         
         
         
3
2
1
1
1
4

11 fr
         
         
         
         
         
1
3
4
2
1
1
3 fr
         
         
         
         
         
X
1
3
1
2
1
8 fr
         
         
         
         
         
1
3
1
1
1
1
         
         
         
         
         
X
1
X
2
4
3
         
         
         
         
         
X
2
1
3
1
4
3 fr
         
         
         
         
         
X
1
3
1
2
4
8 fr
         
         
         
         
         
1
3
1
1
4
1

10 fr
         
         
         
         
         
X
X
1
3
2
2

Bm7

variations
         
         
         
         
         
X
1
3
1
2
1
6 fr
         
         
         
         
         
1
3
1
1
1
1
         
         
         
         
         
X
1
X
2
4
3
         
         
         
         
         
X
1
3
1
2
4
6 fr
         
         
         
         
         
1
X
1
1
1
X
6 fr
         
         
         
         
         
1
3
1
1
4
1

8 fr
         
         
         
         
         
X
X
1
3
2
2
11 fr
         
         
         
         
         
X
2
1
3
1
4
         
         
         
         
         
X
X
1
1
1
5 fr
         
         
         
         
         
X
1
3
2
4
1
5 fr
         
         
         
         
         
X
X
2
4
1
5 fr
         
         
         
         
         
X
1
3
2
4
X
2 fr
         
         
         
         
         
X
4
3
1
1
1
9 fr
         
         
         
         
         
X
X
4
3
2
1

10 fr
         
         
         
         
         
1
4
2
3
1
1
12 fr
         
         
         
         
         
X
X
1
3
3
3
14 fr
         
         
         
         
         
X
X
No chord
Standard guitar tuning:
E
A
D
G
B
E
No capo
A7MI don't wanna wait in vain D7Mfor your love I don't wanna wait in vain for your love A7MFrom the very first timeD7M I placed my eyes on you girl, My heart said follow through But I know now that I'm way down on your line But the waiting feel is fine. So don't treat me like a puppet on a string Cause I know how to do my thing. Don't talk to me, as if you think I'm dumb I want to know when you're gonna come. See, Dsummer is Ehere, I'm stiCm7ll waiting theBm7re. (G string riff: (6~~8), D: 8) Winter is here, and I'm still waiting there...

A7M D7M

e:-------------11-------------------------|-----------------------------------------|
B:--11-13--14-------14p13--11-------------|-----------------------------------------|
G:-----------------------------13h15---13-|-15b-15-p13-15--13---13~~~~~-------------|
D:----------------------------------------|-----------------------------------------|
A:----------------------------------------|-----------------------------------------|
E:----------------------------------------|-----------------------------------------|
  A7M                                        D7M
e:--13----------13------------------------|-----------------------------------------|
B:------16b~~~~~----16-(13)-----13--16-13-|-----------------------------------------|
G:---------------------------16-----------|-15b-15---15---13-15--13~~~~~------------|
D:----------------------------------------|-----------------------------------------|
A:----------------------------------------|-----------------------------------------|
E:----------------------------------------|-----------------------------------------|
  A7M
e:---------------------------------------------------------13----13-|
B:---------------------------------------13----13-16-13-16----16----|
G:---------------------13----13-15-13-15----15----------------------|
D:---13----13-15-13-15----15----------------------------------------|
A:15----15----------------------------------------------------------|
E:------------------------------------------------------------------|
  D7M
e:-16b--16--16----13---13--13--13--13--13-|
B:----------------------------------------|
G:----------------------------------------|
D:----------------------------------------|
A:----------------------------------------|
E:----------------------------------------|
Like I said Ya see, in life I know there's lots of grief, but your love is my relief. Tears in my eyes burn, tears in my eyes burn while I'm waiting, while I'm waiting for my turn. U'See... FADE OUT/