The Bouncing Souls - Better Days Chords

 
         
         
         
         
X
X
1
3
2
2 fr
         
         
         
         
X
4
3
1
2
1
5 fr
         
         
         
         
X
1
2
3
4
1
5 fr
         
         
         
         
X
1
4
4
4
X
7 fr
         
         
         
         
4
3
1
1
1
X
7 fr
         
         
         
         
3
2
1
1
1
4

10 fr
         
         
         
         
1
3
4
2
1
1
12 fr
         
         
         
         
X
X
1
3
4
3
5 fr
         
         
         
         
X
X

B

variations
         
         
         
         
X
1
2
3
4
1
6 fr
         
         
         
         
1
3
4
2
1
1
         
         
         
         
X
1
4
4
4
X
         
         
         
         
X
1
X
3
4
1
3 fr
         
         
         
         
3
2
1
1
1
4
8 fr
         
         
         
         
X
X
1
3
4
3

10 fr
         
         
         
         
X
4
3
1
2
1
         
         
         
         
X
3
2
1
3 fr
         
         
         
         
X
1
2
3
4
1
8 fr
         
         
         
         
1
3
4
2
1
1
3 fr
         
         
         
         
X
1
X
3
4
1
5 fr
         
         
         
         
3
2
1
1
1
4
10 fr
         
         
         
         
X
X
1
3
4
3

12 fr
         
         
         
         
X
4
3
1
2
1
3 fr
         
         
         
         
X
No chord
Standard guitar tuning:
E
A
D
G
B
E
No capo

Riff 1

e--------------------------------------------------------------------------|
B-----6-------6--6------6-------6--6------5-------5--5------6-------6--6---|
G-7-7---7-7-7----7--3-3---3-3-3----3--5-5---5-5-5----5--7-7---7-7-7----7---|
D--------------------------------------------------------------------------|
A--------------------------------------------------------------------------|
E--------------------------------------------------------------------------|

Riff 2

e--------------------------------------------------|
B--6--6-6-6-6--6--6-6-6-6--5--5-5-5-5--6--6-6-6-6--|
G--7--7-7-7-7--3--3-3-3-3--5--5-5-5-5--7--7-7-7-7--|
D--------------------------------------------------|
A--------------------------------------------------|
E--------------------------------------------------|

D,B,C,D x4

Verse 1

DWhat do you Bdo when she won't Clove you anyDmore? DWhat do you Bdo when she won't Chold you anyDmore? DLiving in Bsin, now you're aCll alone agDain DShe's Bhaving a Cchange of Dheart DWithout a Bword everyCthing just fDalls apart

D,B,C,D x2

Verse 2

DWhat do you Bdo when she won't Clove you anyDmore? DWhat do you Bdo when she won't Chold you anyDmore? DTo lovers Bwalking through lCife toDgether DTender Bkisses of all the Csweet things they Dused to say DMemorBies from Cbetter Ddays..D. B C D DMemorBies from Cbetter Ddays...

D,B,C,D x2

Bridge

EDverything we bBuilt, Ceverything that DI believed... JDust someB old fashionedC fantasyD

Riff 3

e--0--0-0-0-0--0--0-0-0-0--0--0-0-0-0--0--0-0-0--|
B--6--6-6-6-6--3--3-3-5-6--5--5-5-5-5--6--6-6-6--|
G--7--7-7-7-7--3--3-3-3-3--5--5-5-5-5--7--7-7-7--| x4
D------------------------------------------------|
A------------------------------------------------|
E------------------------------------------------|