The Bouncing Souls - Joe Lies Chords

 
No chord
Standard guitar tuning:
E
A
D
G
B
E
No capo

Intro

and some other parts) X a lot
G:---------------------------------------------------------------
D:---------------------------------------------------------------
A:---------------------------------------------------------------
E:---0----4----5----7--------------------------------------------
X a lot
G:---------------------------------------------------------------
D:---------------------------------------------------------------
A:---0>---4>---5>---7>-------------------------------------------
E:---------------------------------------------------------------
G:-------------4-4-5-7---      -------------4---5-7---------------
D:---------5-5-----------  OR  ---------5-5---5-------------------
A:-5-5-5-5---------------      -5-5-5-5---------------------------
E:-----------------------      -----------------------------------
G:----------------------------4-4-4-5-5-7------------------------------
D:----------7-7-7-5--5-4-5-5>---------------------------------------------
A:--5-5-5-5----------------------------------------------------------
E:---------------------------------------------------------------
it could be a little off, but it sounds alright.