Buggles - Video Killed The Radio Star Chords

 
         
         
         
         
         
3
2
5 fr
         
         
         
         
         
X
X
1
3
1
4
10 fr
         
         
         
         
         
X
         
         
         
         
         
X
X
1
2
X
5 fr
         
         
         
         
         
X
1
3
4
X
X
10 fr
         
         
         
         
         
1
3
4
X
X
X
         
         
         
         
         
2
7 fr
         
         
         
         
         
X
1
3
1
2
1
         
         
         
         
         
X
X
1
3
2
2
         
         
         
         
         
1
2
4
4
         
         
         
         
         
2
3
4
         
         
         
         
         
2
4

3 fr
         
         
         
         
         
X
3
2
1
5 fr
         
         
         
         
         
X
2
1
3
1
4
7 fr
         
         
         
         
         
X
1
3
1
2
X
7 fr
         
         
         
         
         
X
1
3
1
2
4
12 fr
         
         
         
         
         
1
3
1
1
4
1
         
         
         
         
         
X
X
1
3
2
2 fr
         
         
         
         
         
X
4
3
1
2
1
5 fr
         
         
         
         
         
X
1
2
3
4
1
5 fr
         
         
         
         
         
X
1
4
4
4
X
7 fr
         
         
         
         
         
4
3
1
1
1
X
7 fr
         
         
         
         
         
3
2
1
1
1
4

10 fr
         
         
         
         
         
1
3
4
2
1
1
12 fr
         
         
         
         
         
X
X
1
3
4
3
5 fr
         
         
         
         
         
X
X
         
         
         
         
         
X
1
2
3
5 fr
         
         
         
         
         
1
3
4
2
1
1
2 fr
         
         
         
         
         
X
1
1
1
4
         
         
         
         
         
X
X
1
2
2 fr
         
         
         
         
         
3
2
1
1
1
4
7 fr
         
         
         
         
         
X
X
1
3
4
3

9 fr
         
         
         
         
         
X
4
3
1
2
1
12 fr
         
         
         
         
         
X
1
3
3
3
1

Asus4

variations
         
         
         
         
         
X
1
2
4
2 fr
         
         
         
         
         
X
1
1
2
4
5 fr
         
         
         
         
         
1
3
3
3
1
1
7 fr
         
         
         
         
         
X
1
2
3
4
9 fr
         
         
         
         
         
X
3
4
1
2
X
12 fr
         
         
         
         
         
X
1
3
3
4
1

         
         
         
         
         
X
5 fr
         
         
         
         
         
X
         
         
         
         
         
3
2
4
3 fr
         
         
         
         
         
1
3
4
2
1
1
         
         
         
         
         
2
1
3
4
3 fr
         
         
         
         
         
X
X
3
2
1
1
5 fr
         
         
         
         
         
X
X
1
3
4
3
7 fr
         
         
         
         
         
X
4
3
1
2
1

10 fr
         
         
         
         
         
X
1
2
3
4
X
10 fr
         
         
         
         
         
X
1
3
3
3
1
12 fr
         
         
         
         
         
3
2
1
1
1
4
         
         
         
         
         
X
1
3
4
2
1
7 fr
         
         
         
         
         
1
3
4
1
1
1
         
         
         
         
         
X
1
3
4
2
X
7 fr
         
         
         
         
         
X
X
3
1
1
1
9 fr
         
         
         
         
         
X
X
1
3
4
2
11 fr
         
         
         
         
         
X
4
3
1
2
X
No chord
Standard guitar tuning:
E
A
D
G
B
E
No capo

Intro

 G6           D5          Em7         D                                     A
E ------------------------------------5- ----------------------------------5-
B ---------12---------10---------8----7- -------12---------10---------8----5-
G -------9----------7----------7------7- -----9----------7----------7------6-
D -----9----------7----------9--------7- ---9----------7----------9--------7-
A --10----------9----------7----------5- -10---------9----------7----------7-
E -------------------------------------- ----------------------------------5-

Verse 1

Below is roughly what the piano is playing. It's a lot easier to play on a piano than a guitar. Stick with the basic chords. The timing has been stretched to fit the lyrics.

Verse 2

D G6

Asus4

A

A

Asus4

TAhey took the credit for your second symphony Rewritten by machine and new technology And now I understand the problems you can see (Oh-a-oh) I met your children (Oh-a-oh) What did you tell them ?

Chorus

D Video killed the Aradio star Video killed the radio star PDictures caAme and broGke your heart (AOh- Bm A-oh-oh-oh)

Verse 3

And now we meet in an abandoned studio We hear the playback and it seems so long ago And you remember the jingles used to go (Oh-a-oh) You were the first one (Oh-a-oh) You were the last one IDn my miAnd and in Gmy car, we can't re-wind we've gone to far (AOh- Bm A-oh-oh-oh) (Oh- A-oh-oh-oh)

Solo

E --------------------------------------------------------------------
B ------12---10-----------------------------12---10------------10-----
G ----9----------12--11-------------------9----------12--11-12--------
D --9--------------------12---9---------9-------------------------12--
A --------------------------------------------------------------------
E --------------------------------------------------------------------
E ------------------------------ -------------------------------------
B ------12---10----------------- ---------12-----------10----------8--
G ----9----------12--11--9------ -------9------------7-----------7----
D --9-----------------------12-- -----9------------7-----------9------
A ------------------------------ --10------------9-----------7--------
E ------------------------------ -------------------------------------
E --------------------------------------------
B --17---17(b)19---15-15-15-17(b)19---15--17--
G --14---14(b)16---12-12-12-14(b)16---12--14--
D --------------------------------------------
A --------------------------------------------
E --------------------------------------------
IDn my miAnd and in Gmy car, we can't re-wind we've gone to far Pictures came and broke your heart Put the blame on VTR You are the radio star