Bullet For My Valentine - Say Goodnight Chords

Solo Riff
Hard Part Riff
 
         
         
         
         
         
1
3
4
2
1
1
5 fr
         
         
         
         
         
X
4
3
1
2
1
3 fr
         
         
         
         
         
X
X
1
2
4
3
         
         
         
         
         
X
X
3
2
1
1
8 fr
         
         
         
         
         
X
1
3
3
3
1
10 fr
         
         
         
         
         
4
3
1
1
1
X

10 fr
         
         
         
         
         
3
2
1
1
1
4
         
         
         
         
         
X
X
2
3
1
5 fr
         
         
         
         
         
X
1
3
4
2
1
10 fr
         
         
         
         
         
X
X
1
1
1
5 fr
         
         
         
         
         
X
X
3
2
1
2 fr
         
         
         
         
         
X
4
3
1
2
X
10 fr
         
         
         
         
         
1
3
4
1
1
1

12 fr
         
         
         
         
         
X
X
1
3
4
2
         
         
         
         
         
X
3
2
1
3 fr
         
         
         
         
         
X
1
2
3
4
1
8 fr
         
         
         
         
         
1
3
4
2
1
1
3 fr
         
         
         
         
         
X
1
X
3
4
1
5 fr
         
         
         
         
         
3
2
1
1
1
4
10 fr
         
         
         
         
         
X
X
1
3
4
3

12 fr
         
         
         
         
         
X
4
3
1
2
1
3 fr
         
         
         
         
         
X

B

variations
         
         
         
         
         
X
1
2
3
4
1
6 fr
         
         
         
         
         
1
3
4
2
1
1
         
         
         
         
         
X
1
4
4
4
X
         
         
         
         
         
X
1
X
3
4
1
3 fr
         
         
         
         
         
3
2
1
1
1
4
8 fr
         
         
         
         
         
X
X
1
3
4
3

10 fr
         
         
         
         
         
X
4
3
1
2
1

E

variations
3 fr
         
         
         
         
         
X
4
3
1
2
1
6 fr
         
         
         
         
         
X
1
2
3
4
1
         
         
         
         
         
X
X
1
2
4
3
3 fr
         
         
         
         
         
X
4
3
1
2
X
8 fr
         
         
         
         
         
4
3
1
1
1
X
8 fr
         
         
         
         
         
3
2
1
1
1
4

11 fr
         
         
         
         
         
1
3
4
2
1
1
No chord
Standard guitar tuning:
E
A
D
G
B
E
No capo
Key: F Chords used:

Intro

Matt:

Dm C

e|-------------------------|---------| B|-------------------------|---------| G|-------------------------|---------| D|---0-2-0-3-2---0-2-0-3-2-|---2-3-2-| x4 A|-5-----------5-----------|-3-------| E|-------------------------|---------|
         Dm             B        C
e|-----------------|---------|---------|
B|-----------------|---------|---------|
G|-----------------|---------|---------|
D|---0-2-0-3-2---0-|---2-3-2-|---5-3-2-| x4
A|-5-----------5---|-1-------|-3-------|
E|-----------------|---------|---------|
             B                 C                Dm                 C
e|-------------------------|---------|-------------------------|---------|
B|-----1---3-1---------1---|---------|-------------------------|---------|
G|-------------3-----------|-----2---|-----2-------2-------2---|-----2---|
D|---3---3-------3---3---3-|---2---3-|---3---3---3---3---3---3-|---2---3-|
A|-1---------------1-------|-3-------|-5-------5-------5-------|-3-------|
E|-------------------------|---------|-------------------------|---------|
             B                 C      Dm
e|-------------------------|---------|----|
B|-----1---3-1---------1---|---------|----|
G|-------------3-----------|-----2---|-2--|
D|---3---3-------3---3---3-|---2---3-|-3--|
A|-1---------------1-------|-3-------|-5--|
E|-------------------------|---------|----|
Michael:

Dm B C Dm B C

e|--------|---------|---------|--------|---------|---------| B|--------|---------|---------|--------|---------|---------| G|-2--0h2-|-3--2--0-|-------5-|--------|---------|---------| D|--------|---------|-3--2----|-3--2h3-|-5--3--2-|-3--2----| A|--------|---------|---------|--------|---------|-------3-| E|--------|---------|---------|--------|---------|---------|
     Dm        B        C         Dm        B    C
e|--------|---------|---------|-----------|------|---|
B|--------|---------|---------|-----------|------|---|
G|--------|---------|---------|-2--3----2-|------|---|
D|--------|-2-----2-|-3--2--3-|------5----|-3--5-|-2-|
A|-5--3h5-|----5----|---------|-----------|------|---|
E|--------|---------|---------|-----------|------|---|
                B                  C
e|-13-12-----------13-12----------|---|
B|-------13--------------13-------|---|
G|----------14--------------14----|---|
D|-------------15--------------12-|---|
A|--------------------------------|---|
E|--------------------------------|---|
                   Dm                      C
e|-13-12----15-17--13--12--12--13--12h13-|----|
B|-------13------------------------------|-13-|
G|---------------------------------------|----|
D|---------------------------------------|----|
A|---------------------------------------|----|
E|---------------------------------------|----|
                B                  C
e|-13-12-----------13-12----------|---|
B|-------13--------------13-------|---|
G|----------14--------------14----|---|
D|-------------15--------------12-|---|
A|--------------------------------|---|
E|--------------------------------|---|
                       Dm
e|-13-12----15-17--13--12--13--15--13--12h13-12-|
B|-------13-------------------------------------|
G|----------------------------------------------|
D|----------------------------------------------|
A|----------------------------------------------|
E|----------------------------------------------|

Verse 1

Sing: DmHeaven's Bwaiting Cfor you Dm Just close your Beyes And Csay goodDmbye BHere in your Cpause Go Dmon and on and Bon Dm I live my life in BmiseCry Dm I sacrificed this Bworld to Chold you Dm No breath left inBside of Cme Dm Shattered Bglass keeps Cfalling

Chorus 1

Sing: BSay.... Say CgoodDmnight Just Cin Btime Say CgoodDmnight...

Michael guitar solo 1

Dm--Bb-C x3, Dm--Bb(hold)

Verse 2

Sing: DmFlowers Blaid out Cfor you Dm So many Bcolors Cleave me Dmblind BSeeing your Cface refDmlect from a babies Beyes Dm I live my life in BmiseCry Dm I sacrificed this Bworld to Chold you Dm No breath left inBside of Cme Dm Shattered Bglass keeps Cfalling

Chorus 2

BSay.... Say CgoodDmnight Just Cin Btime Say CgoodDmnightB...F C

Bridge

Growl: Dm So here I am BYou're inside of FmeC Dm So here I am BOur worlds Emay suffer Dm So here I am BYou're inside of FmeC Dm So here I am BOur worlds Emay suffer

Verse 3

Sing: DmHere I am Bwith Fyou CI'm Dmthere til the Eend DmMemories are Btold Fand CSo Dmfarewell my Efriend Growl: Farewell my friend!

Michael guitar solo 2

Dm--Bb-C x4

Bass solo

Dm x4

Outro

Growl: FAREWELL MY DmFRIEND!E MY DmFRIENDE MY DmFRIENDE MY DmFRIENDE F C Dm