Bullet For My Valentine - Scream Aim Fire Chords

Main Riff
 
         
         
         
         
         
1
3
4
2
1
1
5 fr
         
         
         
         
         
X
4
3
1
2
1
3 fr
         
         
         
         
         
X
X
1
2
4
3
         
         
         
         
         
X
X
3
2
1
1
8 fr
         
         
         
         
         
X
1
3
3
3
1
10 fr
         
         
         
         
         
4
3
1
1
1
X

10 fr
         
         
         
         
         
3
2
1
1
1
4
         
         
         
         
         
X
X
2
3
1
5 fr
         
         
         
         
         
X
1
3
4
2
1
10 fr
         
         
         
         
         
X
X
1
1
1
5 fr
         
         
         
         
         
X
X
3
2
1
2 fr
         
         
         
         
         
X
4
3
1
2
X
10 fr
         
         
         
         
         
1
3
4
1
1
1

12 fr
         
         
         
         
         
X
X
1
3
4
2
         
         
         
         
         
X
3
2
1
3 fr
         
         
         
         
         
X
1
2
3
4
1
8 fr
         
         
         
         
         
1
3
4
2
1
1
3 fr
         
         
         
         
         
X
1
X
3
4
1
5 fr
         
         
         
         
         
3
2
1
1
1
4
10 fr
         
         
         
         
         
X
X
1
3
4
3

12 fr
         
         
         
         
         
X
4
3
1
2
1
3 fr
         
         
         
         
         
X
         
         
         
         
         
X
2
3
1
5 fr
         
         
         
         
         
1
3
4
1
1
1
5 fr
         
         
         
         
         
X
X
1
1
1
8 fr
         
         
         
         
         
X
3
2
4
1
2 fr
         
         
         
         
         
X
1
4
4
4
7 fr
         
         
         
         
         
X
1
3
4
2

9 fr
         
         
         
         
         
X
4
3
1
2
X
12 fr
         
         
         
         
         
X
1
3
4
2
1
5 fr
         
         
         
         
         
X

B

variations
         
         
         
         
         
X
1
2
3
4
1
6 fr
         
         
         
         
         
1
3
4
2
1
1
         
         
         
         
         
X
1
4
4
4
X
         
         
         
         
         
X
1
X
3
4
1
3 fr
         
         
         
         
         
3
2
1
1
1
4
8 fr
         
         
         
         
         
X
X
1
3
4
3

10 fr
         
         
         
         
         
X
4
3
1
2
1

G

variations
4 fr
         
         
         
         
         
1
3
4
2
1
1
4 fr
         
         
         
         
         
X
X
3
2
1
1
6 fr
         
         
         
         
         
X
X
1
2
4
3
         
         
         
         
         
3
2
1
1
1
4
8 fr
         
         
         
         
         
X
4
3
1
2
1
11 fr
         
         
         
         
         
X
1
2
3
4
X

11 fr
         
         
         
         
         
X
1
3
3
3
1

E

variations
3 fr
         
         
         
         
         
X
4
3
1
2
1
6 fr
         
         
         
         
         
X
1
2
3
4
1
         
         
         
         
         
X
X
1
2
4
3
3 fr
         
         
         
         
         
X
4
3
1
2
X
8 fr
         
         
         
         
         
4
3
1
1
1
X
8 fr
         
         
         
         
         
3
2
1
1
1
4

11 fr
         
         
         
         
         
1
3
4
2
1
1
         
         
         
         
         
3
2
1
         
         
         
         
         
X
X
2
1
5 fr
         
         
         
         
         
X
3
1
1
1
X
5 fr
         
         
         
         
         
X
3
1
1
1
4
3 fr
         
         
         
         
         
3 fr
         
         
         
         
         
1
3
4
1
1
1
5 fr
         
         
         
         
         
X
X
1
3
4
2
3 fr
         
         
         
         
         
X
X
3
1
1
1
         
         
         
         
         
1
X
2
3
4
         
         
         
         
         
3
1
X
X
X
         
         
         
         
         
2
1
3
4

7 fr
         
         
         
         
         
X
4
3
1
2
X
10 fr
         
         
         
         
         
X
1
3
4
2
1
         
         
         
         
         
X
1
2
3
5 fr
         
         
         
         
         
1
3
4
2
1
1
2 fr
         
         
         
         
         
X
1
1
1
4
         
         
         
         
         
X
X
1
2
2 fr
         
         
         
         
         
3
2
1
1
1
4
7 fr
         
         
         
         
         
X
X
1
3
4
3

9 fr
         
         
         
         
         
X
4
3
1
2
1
12 fr
         
         
         
         
         
X
1
3
3
3
1
3 fr
         
         
         
         
         
X
1
3
4
2
1
8 fr
         
         
         
         
         
1
3
4
1
1
1
         
         
         
         
         
X
3
1
X
X
         
         
         
         
         
X
4
1
2
X
8 fr
         
         
         
         
         
X
X
3
1
1
1
10 fr
         
         
         
         
         
X
X
1
3
4
2

12 fr
         
         
         
         
         
X
4
3
1
2
X

E7M

variations
         
         
         
         
         
X
X
1
4
4
4
6 fr
         
         
         
         
         
X
1
3
2
4
1
6 fr
         
         
         
         
         
X
1
X
3
4
2
3 fr
         
         
         
         
         
X
4
3
1
1
1
10 fr
         
         
         
         
         
X
X
4
3
2
1
11 fr
         
         
         
         
         
1
4
2
3
1
1
         
         
         
         
         
3
2
4
3 fr
         
         
         
         
         
1
3
4
2
1
1
         
         
         
         
         
2
1
3
4
3 fr
         
         
         
         
         
X
X
3
2
1
1
5 fr
         
         
         
         
         
X
X
1
3
4
3
7 fr
         
         
         
         
         
X
4
3
1
2
1

10 fr
         
         
         
         
         
X
1
2
3
4
X
10 fr
         
         
         
         
         
X
1
3
3
3
1
12 fr
         
         
         
         
         
3
2
1
1
1
4
         
         
         
         
         
2
3
3 fr
         
         
         
         
         
X
X
2
4
1
7 fr
         
         
         
         
         
X
1
3
4
2
1
2 fr
         
         
         
         
         
X
X
1
3
4
2
3 fr
         
         
         
         
         
X
3
2
4
1
4 fr
         
         
         
         
         
X
4
3
1
2
X

12 fr
         
         
         
         
         
1
3
4
1
1
1
         
         
         
         
         
X
X
1
3
2
2 fr
         
         
         
         
         
X
4
3
1
2
1
5 fr
         
         
         
         
         
X
1
2
3
4
1
5 fr
         
         
         
         
         
X
1
4
4
4
X
7 fr
         
         
         
         
         
4
3
1
1
1
X
7 fr
         
         
         
         
         
3
2
1
1
1
4

10 fr
         
         
         
         
         
1
3
4
2
1
1
12 fr
         
         
         
         
         
X
X
1
3
4
3
5 fr
         
         
         
         
         
X
X
         
         
         
         
         
X
1
3
4
2
1
7 fr
         
         
         
         
         
1
3
4
1
1
1
         
         
         
         
         
X
1
3
4
2
X
7 fr
         
         
         
         
         
X
X
3
1
1
1
9 fr
         
         
         
         
         
X
X
1
3
4
2
11 fr
         
         
         
         
         
X
4
3
1
2
X
7 fr
         
         
         
         
         
1
3
4
2
1
1
         
         
         
         
         
X
2
1
X
3
         
         
         
         
         
X
1
4
4
4
X
         
         
         
         
         
X
1
3
3
3
1
4 fr
         
         
         
         
         
4
3
1
1
1
X
4 fr
         
         
         
         
         
3
2
1
1
1
4

9 fr
         
         
         
         
         
X
X
1
3
4
3
11 fr
         
         
         
         
         
X
4
3
1
2
1
         
         
         
         
         
2
3
1
4 fr
         
         
         
         
         
X
4
3
1
2
1
7 fr
         
         
         
         
         
X
1
4
4
4
X
2 fr
         
         
         
         
         
X
X
1
2
4
3
4 fr
         
         
         
         
         
4
3
1
2
1
7 fr
         
         
         
         
         
X
1
3
3
3
1

9 fr
         
         
         
         
         
4
3
1
1
1
X
9 fr
         
         
         
         
         
3
2
1
1
1
4
12 fr
         
         
         
         
         
1
3
4
2
1
1
4 fr
         
         
         
         
         
X
         
         
         
         
         
X
3
2
1
1
5 fr
         
         
         
         
         
1
4
3
1
2
1
5 fr
         
         
         
         
         
X
X
3
1
2
1
5 fr
         
         
         
         
         
1
X
X
2
4
3

A/C

variations
         
         
         
         
         
X
3
1
1
1
X
2 fr
         
         
         
         
         
X
3
1
1
1
4
4 fr
         
         
         
         
         
X
1
4
3
2
X
4 fr
         
         
         
         
         
X
1
X
X
4
4
         
         
         
         
         
X
1
1
1
3
         
         
         
         
         
X
1
3
5 fr
         
         
         
         
         
1
3
1
2
1
1
7 fr
         
         
         
         
         
X
1
3
2
4
2 fr
         
         
         
         
         
4
3
1
1
1
2
5 fr
         
         
         
         
         
1
3
1
2
4
1

7 fr
         
         
         
         
         
X
X
1
3
2
4
10 fr
         
         
         
         
         
X
3
2
4
1
12 fr
         
         
         
         
         
X
1
3
3
3
4
No chord
Standard guitar tuning:
E
A
D
G
B
E
No capo
Key: F Chords used:

Intro

Dm--Bb-F-C x2, Dm then pick slide

Verse 1

DmKill your enemies my brothers dead around me F Wounds are hurting death is Ccreeping Amfor me Dm Smoke is blinding hearts are pounding chaos soon ignites F The call is made its one for Call will AmI meet my maker?

Refrain

Dm Over the top, over the top Right now is Fkilling Ctime Dm Over the top, over the top Right now is Fkilling Ctime Dm Over the top, over the top Right now is Fkilling Ctime Dm Over the top, over the top The only way Fout Cis to die

Chorus

DmGod has spoken through his consience As I sBcream aim and fire the Fdeath toll grows Chigher Dm God has spoken through his consience As I sBcream, aim and fire the Fdeath toll grows Chigher Post Chorus 1: Dm Charge!

Verse 2

DmFuck this battle field the bullets tear around me F Bodies falling voices Ccalling Amfor me Dm Limbs are flying men are crying such at hurtful sight F the call is made its one for Call Amtake no prisoners!

C

Post Chorus 2: Dm

Bridge

Dm Guitar effects Scream, aim, fire Scream, aim, fireF C B Am

Guitar solo

Use Verse chords

Outro

Dm F C B Am end on Dm Scream, aim, fire 2.) Eye Of The Storm Key: F Chords used:

Intro

Dm--Dm-G#- x2

Verse 1

Sing: DmCan you hear the thunder? can you feel the raining force?G Dmmelt down all your windows that barricade the doorsG Dmmother nature's fury takes you by the handG Dmshowing all but mercy wrecking death upon the land GGo!

Refrain

E-Dm x7, B(cool riff)
Cool Riff:
e|------------
B|------------
G|-2--0--2--3-
D|------------
A|------------
E|------------

Chorus

Sing: DmCaught in the eye of the stormB Cdid the Dmheaven just open and fall?B Coo We are Dmcaught in the eye of the stormB Call that's Dmleft are just bodies to mournB

Verse 2

Sing: DmCan you see the lightning? Can you feel the winded source?G DmPack up your belongings let chaos take controlG DmMother nature's fury takes you by the handG DmRip this world to pieces Bid farewell to all you know GGo!

C

Interlude

Dm-- x4, Dm--Bb-Gm-A

Bridge

DmCaught in the eye of the storm Caught in the eye of the storm C/ECaught in the Feye of the storm GmCaught in the Aeye of the storm

Guitar solo

Dm--C-Dm--C-Bb--Gm-A-- x2 Bb--C--Am--Bb--Bb--C--Am--Bb-C-

C

Outro

To Bmourn!Dm G Dm 3.) Hearts Burst Into Fire Guitar 1: Matt Tuck Guitar 2: Michael Padget Key: E Chords used: B - x133xx or 688xxx Cm - 8x88xx or 8-10-10-x-x-x or x355xx or x3x34x Cm2 - 8x87xx or x3x33x

Intro

Part 1:
Guitar 1: x2

E Cm

e|----------------------------------|-----------------| B|---------6-----6-----6-----6------|-----------------| G|-----8-----8-----8-----8-----8----|-----8---7-8-----| D|---8---8-----8-----8-----8-----8--|---8---8-----8---| A|-6--------------------------------|-----------------| E|----------------------------------|-8-------------8-|
                E                              Cm
e|----------------------------------|--------------------------|
B|---------6-----6-----6-----6------|--------------------------|
G|-----8-----8-----8-----8-----8----|-----8---7-8------7-8-----|
D|---8---8-----8-----8-----8-----8--|---8---8-----8--------8---|
A|-6--------------------------------|--------------------------|
E|----------------------------------|-8-------------8--------8-|
Guitar 2:

E Cm E Cm

e|-------6-----|-------------|-------|------------------| B|-3--4------4-|-3--4--1-----|-----1-|-1--3-3--4-4--6-6-| G|-------------|-----------3-|-3-----|------------------| D|-------------|-------------|-------|------------------| A|-------------|-------------|-------|------------------| E|-------------|-------------|-------|------------------|
Part 2:
Guitar 1:

G Cm

e|------------|------------| B|------------|------------| G|------------|-5--5--5--5-| D|-6--6--6--6-|-5--5--5--5-| A|-6--6--6--6-|-3--3--3--3-| E|-4--4--4--4-|------------|
x2 x2
       G           Cm      B
e|------------|------------|---|
B|------------|------------|---|
G|------------|-5--5--5--5-|-3-|
D|-6--6--6--6-|-5--5--5--5-|-3-|
A|-6--6--6--6-|-3--3--3--3-|-1-|
E|-4--4--4--4-|------------|---|
x2 x2 Guitar 2: L = Left Hand, R = Right Hand
Very fast tapping!!!

G

e|-----------------|----------------------| B|-----------------|----------------------| G|-8h10p8h10h12p10-|-8h10p8h10h12p10p8h10-| D|-----------------|----------------------| A|-----------------|----------------------| E|-----------------|----------------------|
L L L L R L L L L L R L L L x4
            Cm
e|--------------|------------|
B|--------------|------------|
G|-7h8p7h8h10p8-|-7h8p7h8h10-|
D|--------------|------------|
A|--------------|------------|
E|--------------|------------|
L L L L R L L L L L R x4
          G                Cm        B
e|-------------------|---------------|---
B|-------------------|-6h8p6---6-8-9-|-8-
G|-5--7-7--8-8-------|-------8-------|---
D|--------------8-8--|---------------|---
A|-------------------|---------------|---
E|-------------------|---------------|---
Part 3:
Guitar 1: up to verses

E E7M

e|--------------|------------- B|--------------|------------- G|-8------------|-7----------- D|-8------------|-8----------- x2 A|-6--6-6-6-6-6-|-6-6-6-6-6-6- E|--------------|-------------
        Cm           Cm2
e|--------------|-------------
B|--------------|-------------
G|-8------------|-7-----------
D|-8------------|-8----------- x2
A|-x------------|-x-----------
E|-8--8-8-8-8-8-|-8-8-8-8-8-8-
Guitar 2:

E Cm

e|----|-18-| B|-4--|----| G|----|----| D|----|----| A|----|----| E|----|----|

Verse 1

E I'm E7Mcoming Ehome I've been E7Mgone for far too CmlongCm2 Do you reCmmember Cm2me at Eall? I'm E7Mleaving E Hell I've E7Mfucked things up aCmgain I'm Cm2dreaming Cm Too much Cm2time without you spent

Refrain

G BIt Cmhurts whoww Bso Gsore Now I'm BTorn Now I'm Torn

Chorus

Cm G B I've been far Ga--B--way Cm G B When I see your face my CmHearts Burst Ginto BFireG B CmHearts Burst GInto BFire
Guitar 2: Chorus

Cm G B

e|-------|-6--4--3--4-|-------| B|-4-6-4-|------------|-6~--4-| G|-------|------------|-------| D|-------|------------|-------| A|-------|------------|-------| E|-------|------------|-------|
    Cm         G               B
e|-------|-6--4--3--4-|------3-4-3---3------|
B|-4-6-4-|------------|-6~---------6---6--4-|
G|-------|------------|---------------------|
D|-------|------------|---------------------|
A|-------|------------|---------------------|
E|-------|------------|---------------------|
        Cm              G                B            G  B
e|----------------|------------|-----------------------|---|---|
B|----------------|------------|-----------------------|---|---|
G|----------------|------------|-3---------------3-3-3-|---|-3-|
D|-5----6---5---3-|------1-3-0-|-3---------------3-3-3-|-6-|-3-| x2
A|-3--3---3---3---|-6----------|-1-1-1-1-1-1-1-1-1-1-1-|-6-|-1-|
E|----------------|-4--4-------|-----------------------|-4-|---|

Verse 2

E You're E7Mnot aElone I E7Mknow I'm far from CmhomeCm2 Do You ReCmmember Cm2Me At EAll? I'm E7MLeaving E Do you E7Mwait for me aCmgain? I'm SCm2creaming Cm No more Cm2days without you spent

C

Bridge

silence, Guitar 2 is plucking here Cm Now that I've grown so GloneBly Cm No arms just sheets to Ghold Bme G Has this world stopped GturBning Cm Are we forever to Gbe Ba--Epart? Forever to be apart
Guitar 2: Bridge, plucking
e|-3-----3-----------------4-----4-----3-----3-----|
B|---4-----4---6-4---6-4-----4-----4-----4-----4---|
G|-----3-----3-----3-----3-----3-----3-----3-----3-|
D|-------------------------------------------------| x2
A|-------------------------------------------------|
E|-------------------------------------------------|
e|-3-----3-----------------6-----6-----3-----3-----|
B|---4-----4---6-4---6-4-----4-----4-----4-----4---|
G|-----3-----3-----3-----3-----3-----3-----3-----3-|
D|-------------------------------------------------|
A|-------------------------------------------------|
E|-------------------------------------------------|
e|-3-----3-----------------4-----4-----3-----3-----|
B|---4-----4---6-4---6-4-----4-----4-----4-----4---|
G|-----3-----3-----3-----3-----3-----3-----3-----3-|
D|-------------------------------------------------|
A|-------------------------------------------------|
E|-------------------------------------------------|

C

Outro

E I'm coming home I've been gone for too long (I'm coming home) Would you remember me at Eall?E7M E E7M Cm Cm2 Do you reCmmember Cm2me at Eall? I'm E7MleavingE I'm sE7McreamingCm I'm Cm2Dreaming When CmHEARTS BURST GIN-BTO CmFIRE! Guitar 2:
I'm coming home, I've been gone...
e|-11-10-------------|-11-10-------------|
B|-------11----------|-------11------8---|
G|----------10-8-7-8-|----------10-8---8-|
D|-------------------|-------------------|
A|-------------------|-------------------|
E|-------------------|-------------------|
x3
   FIRE!!!!
e|-/15-13------------------/15-13------------------|
B|--------15----------------------15---------------|
G|-----------13-12-10-12~------------13-12-/15-12~-|
D|-------------------------------------------------|
A|-------------------------------------------------|
E|-------------------------------------------------|
4.) Waking The Demon Key: G Chords used:

Intro

Matt: x means palm mute

Em Em F G

e|---------------------------------|-------------------------|---|--- B|---------------------------------|-------------------------|---|--- G|---------------------------------|-------------------------|---|--- D|-2-------------------------------|-2-----------------------|-3-|-5- A|-2-------3-2-----5-2-------------|-2-------3-2-----5-2-----|-3-|-5- E|-0-0-0-0-----0-0-----0-0-1-0-3-0-|-0-0-0-0-----0-0-----0-0-|-1-|-3-
x x x x x x x x x x x x x x
                 Em                         Em
e|---------------------------------|--------------------
B|---------------------------------|--------------------
G|---------------------------------|--------------------
D|-2-------------------------------|-2----------------2-
A|-2-------3-2-----5-2-------------|-2-------3-2------2-
E|-0-0-0-0-----0-0-----0-0-1-0-3-0-|-0-0-0-0-----0-0--0-
x x x x x x x x x x x x
       Em
e|-------------
B|-------------
G|-------------
D|-2-----------
A|-2-sustained-
E|-0-----------
Matt: x4

Em Em F G

e|---------------------------------|-------------------------|---|--- B|---------------------------------|-------------------------|---|--- G|---------------------------------|-------------------------|---|--- D|-2-------------------------------|-2-----------------------|-3-|-5- A|-2-------3-2-----5-2-------------|-2-------3-2-----5-2-----|-3-|-5- E|-0-0-0-0-----0-0-----0-0-1-0-3-0-|-0-0-0-0-----0-0-----0-0-|-1-|-3-
x x x x x x x x x x x x x x
                 Em                         Em
e|---------------------------------|--------------------
B|---------------------------------|--------------------
G|---------------------------------|--------------------
D|-2-------------------------------|-2----------------2-
A|-2-------3-2-----5-2-------------|-2-------3-2------2-
E|-0-0-0-0-----0-0-----0-0-1-0-3-0-|-0-0-0-0-----0-0--0-
x x x x x x x x x x x x
   C         D
e|---|-----------------
B|---|-----------------
G|-5-|-----------------
D|-5-|-5p0h2p0---------
A|-3-|---------3p2h3p2-
E|---|-----------------
x2
Michael: x means palm mute x5

Em Em F G

e|---------------------------------|-------------------------|---|--- B|---------------------------------|-------------------------|---|--- G|---------------------------------|-------------------------|---|--- D|-2-------------------------------|-2-----------------------|-3-|-5- A|-2-------3-2-----5-2-------------|-2-------3-2-----5-2-----|-3-|-5- E|-0-0-0-0-----0-0-----0-0-1-0-3-0-|-0-0-0-0-----0-0-----0-0-|-1-|-3-
x x x x x x x x x x x x x x
                 Em                             Em
e|---------------------------------|---------------------------------
B|---------------------------------|---------------------------------
G|---------------------------------|---------------------------------
D|-2-------------------------------|-2---------------5p0h2p0---------
A|-2-------3-2-----5-2-------------|-2-------3-2-------------3p2h3p2-
E|-0-0-0-0-----0-0-----0-0-1-0-3-0-|-0-0-0-0-----0-0-----------------
x x x x x x x x x x x x
   C         D
e|---|-----------------
B|---|-----------------
G|-5-|-2p0h2p0---------
D|-5-|---------4p0h2p0-
A|-3-|-----------------
E|---|-----------------
will only play at matt's 2nd turn

Verse 1

Growl: EmHelpless my eyes are bleeding Ffrom Gthe Emfear that's inside You sealed your demise when you took what was mine Dont try and stop me Ffrom Gavenging this Emworld No voice to be heard

Chorus

Sing: EmWaking the Demon CWhere'd Dya Emrun toC D EmWalking in shadows CWatch Dthe Emblood flowC D Sing: C Theres not much longer so Bmdont try and fight Em Your bodies weakening so Dwalk to the light C All those painfull times so aBmlone so ashamed Growl: I'm Emnot coming back there's nothing to gain

Verse 2

Growl: EmCaution there's just no limits Fto Gthe Emboundaries you push I've warned you but still you just fuck with my mind There's no escape Ffrom Gthis Emrage that i feel Nothing is real

C

Bridge

Sing: CBreath for meD Em Don't wake me from this slumber C Stay with meD Em Possession taking over
Michael: While doing Bridge

C D Em

e|-2---3---|-2---3-0-|-2---3---5---3---2---3--- B|---3---3-|---3-----|---3---3---3---3---3---3- G|---------|---------|------------------------- D|---------|---------|------------------------- A|---------|---------|------------------------- E|---------|---------|-------------------------
      C         D                      Em
e|-2---3---|-2---3-0-|-2---3---5---3---2---10pinch-harmonic-
B|---3---3-|---3-----|---3---3---3---3---3------------------
G|---------|---------|--------------------------------------
D|---------|---------|--------------------------------------
A|---------|---------|--------------------------------------
E|---------|---------|--------------------------------------
      C         D                Em
e|-2---3---|-2---3-0-|-2---3---5---3---2---3---
B|---3---3-|---3-----|---3---3---3---3---3---3-
G|---------|---------|-------------------------
D|---------|---------|------------------------- x2
A|---------|---------|-------------------------
E|---------|---------|-------------------------

Interlude

Em--F-Em x3, Em--F-Em-F-Em x5

Guitar solo

Em-- x8 C-Bm-Em-D-C-Bm-Em--

B

Outro

EmWaking the Demon 5.) Disappear Key: F Chords used:

Intro

Dm--Bb--F-C x2, Dm--Dm-C-Bb- x2, Cool Riff
Guitar 2:

Dm B F C

e|----------------|---|---|--- B|----------------|---|---|--- G|-2--2-0--0--0-2-|-3-|---|-5- D|-3--3-2--2--2-3-|-3-|-3-|-5- A|----------------|-1-|-3-|-3- E|----------------|---|-1-|---
x2
   Dm  Dm  C   B
e|---|---|---|---
B|---|---|---|---
G|-7-|-7-|-5-|-3-
D|-7-|-7-|-5-|-3- x2
A|-5-|-5-|-3-|-1-
E|---|---|---|---
Cool Riff:
e|-6-5------5---
B|-----6-8----6-
G|--------------
D|--------------
A|--------------
E|--------------

Verse 1

Sing: Dm Once again the Csame things Bon your mind Dm Increasing pulse from C B cool riff what goes on inside Dm Will you pay for Cwhat you've Bdone hatred Dm Paybacks such a Cbitch her Bb cool riff vengeance haunts you

Refrain

Sing: C So what's wrong tough guy why the Btears C You drove me to this now you FdisapAmpear

Chorus

Growl: Dm Now all those acts repaid Your turn to be afraid Sing: B Not longer almost done C Oh god just what have I become

Interlude

   Dm  Dm  C   B
e|---|---|---|---
B|---|---|---|---
G|-7-|-7-|-5-|-3-
D|-7-|-7-|-5-|-3- x2
A|-5-|-5-|-3-|-1-
E|---|---|---|---
Cool Riff:
e|-6-5------5---
B|-----6-8----6-
G|--------------
D|--------------
A|--------------
E|--------------

Verse 2

Sing: Dm Try to fight you Conly Bmake things worse Dm Screams of agoCny Bb Cool Riff your final verse Dm Now you're begging Cfor your Blife breathless Dm All the times I Cbled Bb Cool Riff my vengeance takes you

C

Bridge

Sing: B Your sweetest dreams turn into Dmtears It's almost Bdone They're almost Cgone B I knocked these days just fade aDmway It's almost Bdone They're almost Cgone

Guitar solo

Dm--Bb--F--Am-- x2,

Interlude

Dm--C-Bb--F-Dm--C-Bb--C x2

Verse 3

Sing: C So whats wrong tough guy why the Btears C You drove me to this now Byou disappear

C

Outro

Dm-- x4, Dm(hold) 6.) Deliver Us From Evil Key: B Chords used:

Intro

Part 1: Palm mute Gm--Eb--F--Gm--Eb-Dm-Cm-Bb, Gm--Eb--F/A--Dm Part 2: Distortion Eb--F--Bb--F/A--Eb--F- Part 3: Back to palm mute Gm--Eb--F--Gm--Eb-Dm-Cm-Bb-

Verse 1

Gm What's happening to Eme!? I'm dying from the Finside! Body Gmhurts too Emuch Fto feel! Gm Pressure adds to Epain! Deliver us from Fevil! Straying Gmout of Esa-Fnity! Gm Why can't you let me Ebe!? There's nothing else imFportant! Does my Dmmind mean Emore Fto you!? Gm cause if I carry Eon! Deliver us from Fevil! Screaming Dmfor your Eva-Dm---Cmni-B--ty!

Refrain

E Will Fdarkness turn to Gmlight!?

Am B E

DA E GB

Can Fsomeone wake me Dmfrom this nightmare? EHere Fwe Gmgo Am B Ehere Fwe Gmgo B

Chorus 1

E The tank is empty let it Fdry I'm suffering B A passion ending so the F/Aworld ceases turning E The tank is empty let it Fdry

Verse 2

Gm So now I hope you Esee I'm nothing more than Fhuman! Making Dmplans for eneGmmies! But here we go aEgain! Deliver us from Fevil! Crawling Dmback to inEsa-Dm---Cmni-Bty!

Chorus 2

E The tank is empty let it Fdry I'm suffering B A passion ending so the F/Aworld ceases turning E The tank is empty let it Fdry I'm suffering B A passion ending so the F/Aworld ceases turning E The tank is empty let it Fdry I'm suffering

Interlude

Gm--Eb-F

Verse 3

Gm What's happening to me? I'm dying from the Einside Body Dmhurts to much to feel Gm Pressure adds to pain DeEliver us from evil

Dm

F

Gm Pressure adds to Epain You're evil we're Dmevil, I'm Fevil!

Guitar solo

Gm--Bb-Dm--Eb-Dm-Cm-Bb x2

Chorus 3

E The tank is empty let it Fdry I'm sufferingB

Chorus 4

E The tank is empty let it Fdry I'm suffering B A passion ending so the F/Aworld ceases turning 7.) Take It Out On Me Guitar 1: Matt Tuck Guitar 2: Michael Padget Key: F Chords used:

Intro

Matt and Michael both:

Dm E

e|------------|--------------- B|------------|--------------- G|-7----------|--------------- D|-7----------|--------------- x6 A|-5--5p3h5p3-|-6-5-3-5-0----- E|------------|-----------3-1-
x3
       Em             F             Dm      E  Dm  B     E    Dm
e|------------|---------------|------------|---|---|---|--------|---
B|------------|---------------|------------|---|---|---|--------|---
G|------------|---------------|-7----------|-8-|-7-|-3-|-8--x-x-|-7-
D|-2--2p0h2p0-|-3-2-0-2-------|-7----------|-8-|-7-|-3-|-8--x-x-|-7-
A|-2----------|---------2-0---|-5--5p3h5p3-|-6-|-5-|-1-|-6--x-x-|-5-
E|-0----------|-------------3-|------------|---|---|---|--------|---
x3 x2

Verse 1

Sing: Dm I'm always Bthinking of youC and all the Dmthings that you do Dm Self-centred BsatisfactionC no more will DmI run from Eyou Dm Dysfunction Bfamily values C I'll die but Dmi will not fear Dm Stop talking Bwords of wisdomC you fool I'm Dmstanding right Ehere
Michael: in "I run from you" and "standing right here"

Dm E

e|------------|------------ B|------------|------------ G|-7----------|-8---------- D|-7----------|-8---------- A|-5--5p3h5p3-|-6--6p5h6p5- E|------------|------------

Chorus 1

sing: B The world is Dmon your shoulders B The weight it's Ccrushing me B Now we're all Dmgetting older B Take it out Growl: Ctake it out take it out take it out ETake it out Dmon me Etake it out Dmon me ETake it out Dmon me Etake it out Dmon me EVent Dmyour BfrusEtration Dmon me

Verse 2

Sing: Dm I feel so Bmuch destruction C in everyDmthing that you do Dm Anger is Bcreeping in me C watch i don't Dmexpolde on Eyou Dm My rage it Bcomes so quickly C one spark and DmI will ignite Dm Self-harming Bmutilation Ccuts deep but the Dmpain feels so Eright
Michael: in "explode on you" and "pain feels so right"

Dm E

e|------------|------------ B|------------|------------ G|-7----------|-8---------- D|-7----------|-8---------- A|-5--5p3h5p3-|-6--6p5h6p5- E|------------|------------

Interlude

Dm-- x4,

Bass solo

Dm--Bb--C-- x2

Dm B C

G|----14----14----14----14-|---10---10---10---10-|----12----12----12----12- D|-12----12----12----12----|-8----8----8----8----|-10----10----10----10---- A|-------------------------|---------------------|------------------------- E|-------------------------|---------------------|-------------------------
x2

Bridge

Sing: C This fire burns inDmside BTurning things inCside Dm B C There's no where left to DmhideB C Dm B C This fire burns inDmside This Bfire burns inCside Growl: Dm B C This rage can't be denied
Matt: while singing  "inside..."

Dm B C

e|---------1----|-----1---3-1---1-|-----1---3-1---1-0- B|-----3------3-|-----------------|---1---1-----1---1- G|---2---2--2---|---3---3-----3---|-----------------0- D|-0------------|-----------------|-----------------2- x4 A|--------------|-1---------------|-3---------------3- E|--------------|-----------------|-------------------
Palm mute

Dm B C

e|-----------------|-----------------|----------------- B|-----------------|-----------------|----------------- G|-7-7-7-7-7-7-7-7-|-3-3-3-3-3-3-3-3-|-5-5-5-5-5-5-5-5- D|-7-7-7-7-7-7-7-7-|-3-3-3-3-3-3-3-3-|-5-5-5-5-5-5-5-5- x2 A|-5-5-5-5-5-5-5-5-|-1-1-1-1-1-1-1-1-|-3-3-3-3-3-3-3-3- E|-----------------|-----------------|-----------------
X2
Michael: while singing  "left to hide.."

Dm B C

e|---|-8--6--5--------5-|-------- B|-6-|-------------8----|-8--6-5- G|---|----------5-------|-------- D|---|------------------|-------- A|---|------------------|-------- E|---|------------------|--------
  Dm          B                   C
e|---|-8--6--5--------5-|---------------------
B|-6-|-------------8----|-8--6-5--5--5h6p5----
G|---|----------5-------|------------------5--
D|---|------------------|---------------------
A|---|------------------|---------------------
E|---|------------------|---------------------
   Dm           B             C
e|-----|-8--6--5--------5-|-----------
B|-----|-------------8----|-8--8/10-5-
G|-5h7-|----------5-------|-----------
D|-----|------------------|-----------
A|-----|------------------|-----------
E|-----|------------------|-----------
   Dm          B            C
e|-13-|-8--6--5--------5-|--------
B|----|-------------8----|-8--6-5-
G|----|----------5-------|--------
D|----|------------------|--------
A|----|------------------|--------
E|----|------------------|--------

Guitar solo

Moderate: Matt: Dm--Bb--C-- x6,
Michael: x3

Dm B C

e|-5-------|---------|--------------------------- B|---8-6---|-6-5-----|-6-6h8-6-6h8--8\6-5--5h6--- G|-------7-|-----7-5-|-------------------------7- D|---------|---------|--------------------------- A|---------|---------|--------------------------- E|---------|---------|---------------------------
     Dm        B                C
e|-5-------|---------|---------5---------------
B|---8-6---|-6b------|-6-6h8-6----8\6-5--5h6---
G|-------7-|-----7-5-|-----------------------7-
D|---------|---------|-------------------------
A|---------|---------|-------------------------
E|---------|---------|-------------------------
Fast Shredding: Matt: Dm-C/E-F-Gm-B-A-F
Michael:

Dm C/E F

e|---------5---------|-----------10-----------|------------8------------ B|-------6---6-------|--------10----10--------|---------10---10--------- G|-----7-------7-----|------9----------9------|------10---------10------ D|---7-----------7---|---10--------------10---|---10---------------10--- A|-5---------------5-|-7--------------------7-|-8---------------------8- E|-------------------|------------------------|-------------------------
          Gm                       B    A    F    Dm
e|-------------10-------------|-17--15-|-13-|-12-|-13--
B|----------11----11----------|--------|----|----|-----
G|-------12----------12-------|--------|----|----|-----
D|----12----------------12----|--------|----|----|-----
A|-10----------------------10-|--------|----|----|-----
E|----------------------------|--------|----|----|-----

Chorus 2

sing: B The world is Dmon your shoulders B The weight it's Ccrushing me B Now we're all Dmgetting older B Take it out Growl: Ctake it out take it out take it out ETake it out Dmon me Etake it out Dmon me ETake it out Emon me Ftake it out Dmon me EVent Dmyour BfrusEtration Dmon me

Interlude

Dm--
Michael:
e|-5-------|---------|---------------------------
B|---8-6---|-6-5-----|-6-6h8-6-6h8--8\6-5--5h6---
G|-------7-|-----7-5-|-------------------------7-
D|---------|---------|---------------------------
A|---------|---------|---------------------------
E|---------|---------|---------------------------

Outro

Growl: DmTake Cit Dmout 8.) Say Goodnight Matt Tuck: Guitar 1 Michael Paget: Guitar 2 Key: F Chords used:

Intro

Matt:

Dm C

e|-------------------------|---------| B|-------------------------|---------| G|-------------------------|---------| D|---0-2-0-3-2---0-2-0-3-2-|---2-3-2-| x4 A|-5-----------5-----------|-3-------| E|-------------------------|---------|
         Dm             B        C
e|-----------------|---------|---------|
B|-----------------|---------|---------|
G|-----------------|---------|---------|
D|---0-2-0-3-2---0-|---2-3-2-|---5-3-2-| x4
A|-5-----------5---|-1-------|-3-------|
E|-----------------|---------|---------|
             B                 C                Dm                 C
e|-------------------------|---------|-------------------------|---------|
B|-----1---3-1---------1---|---------|-------------------------|---------|
G|-------------3-----------|-----2---|-----2-------2-------2---|-----2---|
D|---3---3-------3---3---3-|---2---3-|---3---3---3---3---3---3-|---2---3-|
A|-1---------------1-------|-3-------|-5-------5-------5-------|-3-------|
E|-------------------------|---------|-------------------------|---------|
             B                 C      Dm
e|-------------------------|---------|----|
B|-----1---3-1---------1---|---------|----|
G|-------------3-----------|-----2---|-2--|
D|---3---3-------3---3---3-|---2---3-|-3--|
A|-1---------------1-------|-3-------|-5--|
E|-------------------------|---------|----|
Michael:

Dm B C Dm B C

e|--------|---------|---------|--------|---------|---------| B|--------|---------|---------|--------|---------|---------| G|-2--0h2-|-3--2--0-|-------5-|--------|---------|---------| D|--------|---------|-3--2----|-3--2h3-|-5--3--2-|-3--2----| A|--------|---------|---------|--------|---------|-------3-| E|--------|---------|---------|--------|---------|---------|
     Dm        B        C         Dm        B    C
e|--------|---------|---------|-----------|------|---|
B|--------|---------|---------|-----------|------|---|
G|--------|---------|---------|-2--3----2-|------|---|
D|--------|-2-----2-|-3--2--3-|------5----|-3--5-|-2-|
A|-5--3h5-|----5----|---------|-----------|------|---|
E|--------|---------|---------|-----------|------|---|
                B                  C
e|-13-12-----------13-12----------|---|
B|-------13--------------13-------|---|
G|----------14--------------14----|---|
D|-------------15--------------12-|---|
A|--------------------------------|---|
E|--------------------------------|---|
                   Dm                      C
e|-13-12----15-17--13--12--12--13--12h13-|----|
B|-------13------------------------------|-13-|
G|---------------------------------------|----|
D|---------------------------------------|----|
A|---------------------------------------|----|
E|---------------------------------------|----|
                B                  C
e|-13-12-----------13-12----------|---|
B|-------13--------------13-------|---|
G|----------14--------------14----|---|
D|-------------15--------------12-|---|
A|--------------------------------|---|
E|--------------------------------|---|
                       Dm
e|-13-12----15-17--13--12--13--15--13--12h13-12-|
B|-------13-------------------------------------|
G|----------------------------------------------|
D|----------------------------------------------|
A|----------------------------------------------|
E|----------------------------------------------|

Verse 1

Sing: DmHeaven's Bwaiting Cfor you Dm Just close your Beyes And Csay goodDmbye BHere in your Cpause Go Dmon and on and Bon Dm I live my life in BmiseCry Dm I sacrificed this Bworld to Chold you Dm No breath left inBside of Cme Dm Shattered Bglass keeps Cfalling

Chorus 1

Sing: BSay.... Say CgoodDmnight Just Cin Btime Say CgoodDmnight...

Michael guitar solo 1

Dm--Bb-C x3, Dm--Bb(hold)

Verse 2

Sing: DmFlowers Blaid out Cfor you Dm So many Bcolors Cleave me Dmblind BSeeing your Cface refDmlect from a babies Beyes Dm I live my life in BmiseCry Dm I sacrificed this Bworld to Chold you Dm No breath left inBside of Cme Dm Shattered Bglass keeps Cfalling

Chorus 2

BSay.... Say CgoodDmnight Just Cin Btime Say CgoodDmnightB...F C

Bridge

Growl: Dm So here I am BYou're inside of FmeC Dm So here I am BOur worlds Emay suffer Dm So here I am BYou're inside of FmeC Dm So here I am BOur worlds Emay suffer

Verse 3

Sing: DmHere I am Bwith Fyou CI'm Dmthere til the Eend DmMemories are Btold Fand CSo Dmfarewell my Efriend Growl: Farewell my friend!

Michael guitar solo 2

Dm--Bb-C x4

Bass solo

Dm x4

Outro

Growl: FAREWELL MY DmFRIEND!E MY DmFRIENDE MY DmFRIENDE MY DmFRIENDE F C Dm 9.) End Of Days Key: E Chords used:

Intro

Cm--Cm--Cm--G#-Gm x2, Cm(cool Riff) Bb
Cool riff:
e|---------------------
B|---------------------
G|-------------------3-
D|-3h5p3-------------3-
A|-------6--5h6p5----1-
E|----------------6----

Verse 1

Sing: Cm We're wasting precious time G The clock is ticking Can you Bhear the DmcountEdown Cm With every hour Give me the power G I need the strength to carry Bon DmOn and Eon

Refrain

Sing: G No more I care to live When I'm just born to die Growl: CmWe're all born to die Born to die

Chorus

Growl: Cm Never before, never again Sing: Behold this GtravesGmty Growl: Never before, never again Sing: G Behold adGmversary
Post chorus:
e|---------------------
B|---------------------
G|-------------------3-
D|-3h5p3-------------3-
A|-------6--5h6p5----1-
E|----------------6----

Verse 2

Sing: Cm Befriend my enemies G My pulse is racing I can Bhear my Dmheart Ebeat Cm Is this the last time You get to be mine G I lack the will to carry Bon DmOn and Eon

C

Interlude

Cm--G#-Bb-Cm--Cm-Bb-G#--G#-G#-Gm--Eb--Dm--

Bridge

Growl: CmNo more sorrows no tommorows G I've never felt alive beGmfore

Interlude

Cm--G#--Gm--Eb-Dm- x2

Guitar solo

Cm--G#--Bb--Dm-Eb x3

Verse 3

Sing: Cm With every hour Give me the power G I need the strength to carry Bon On and on

Outro

Growl: To CmdieG Gm

Cm

10.) Last To Know Key: F Chords used:

Intro

BDm--C-Bb-A Dm C/E F Gm

Verse 1

Growl: DmPick up broken bones! where's your sticks and sCtones!? Sing: what'd you use to Bhurt me? Growl: something you should Dmknow cannot take no more! time to settle sCcores! Sing: feel the rage that Bfuels me! Growl: i will not give up!

Refrain

Dm hypocrisy from jealousy

B C

Chorus

Growl: Cwatch Dmyou scream now hold on to me!C Dmyour smile you're Btriggering me! Sing: C why Dmdo you stoop so low!? B am Dmi the Clast to Fknow!? Post chorus: Dm--C-Bb-

Verse 2

Growl: Dmwhere's your big mouth now!? hope you're fucking Cproud! Sing: do you like your Bbruises!? Growl: now you make no Dmsound! was your lesson learned!? now the tables Cturn! Sing: what were your inBtentions?! Growl: so come on down now break!

C

Bridge

B Dm Am I The last to know B Dm Am I The last to know

Guitar solo

Bb--Dm-- x2

C

Outro

B A Dm C/E F Gm Dm

11.) Forever And Always Key: C Chords used:

Intro

Matt:

C Am F

E|--------------------|---|---|--- G|--------------------|-5-|-2-|--- D|--2--0--------0h2p0-|-5-|-2-|-3- A|--------3--2--------|-3-|-0-|-3- E|--------------------|---|---|-1-
         C                 Am                F
e|-----------------|-----------------|-----------------
B|-----------------|-----------------|-----------------
G|-5-5-5-5-5-5-5-5-|-2-2-2-2-2-2-2-2-|-----------------
D|-5-5-5-5-5-5-5-5-|-2-2-2-2-2-2-2-2-|-3-3-3-3-3-3-3-3- x3
A|-3-3-3-3-3-3-3-3-|-0-0-0-0-0-0-0-0-|-3-3-3-3-3-3-3-3-
E|-----------------|-----------------|-1-1-1-1-1-1-1-1-
Padge:

C

E|----------------------|---------------- B|----------------------|-----1-----0---- G|----------------------|---0-----0----0- D|---------------0h2p0--|---------------- A|--3--2--0-------------|-3-----3----3--- E|-----------3----------|----------------
e|---------------------------|--------------------------|
B|--3--------1--------0h--1--|--------1--------0--------|
G|--------0--------0---------|-----0--------0--------0--|
D|---------------------------|--------------------------|
A|-----3--------3------------|--3--------3--------3-----|
E|---------------------------|--------------------------|
                                        Am
---------------------------|--------------------------|
--3--------1--------1p--0--|--------1--------0--------|
--------0--------0---------|--------------------------|
---------------------------|-----2--------2--------2--|
-----3--------3------------|--0--------0--------0-----|
---------------------------|--------------------------|
                                        F
---------------------------|--------------------------|
--3--------1--------0h--1--|--------1--------0--------|
---------------------------|--------------------------|
--------2--------2---------|--------------------------|
-----0--------0------------|-----3--------3--------3--|
---------------------------|--1--------1--------1-----|
                                        C
---------------------------|--------------------------|
--3--------1--------0h--1--|--------1--------0--------|
---------------------------|-----0--------0--------0--|
---------------------------|--------------------------|
--------3--------3---------|--3--------3--------3-----|
-----1--------1------------|--------------------------|
---------------------------|--------------------------|
--3--------1--------0h--1--|--------1--------0--------|
--------0--------0---------|-----0--------0--------0--|
---------------------------|--------------------------|
-----3--------3------------|--3--------3--------3-----|
---------------------------|--------------------------|
                                        Am
---------------------------|--------------------------|
--3--------1--------1p--0--|--------1--------0--------|
--------0--------0---------|--------------------------|
---------------------------|-----2--------2--------2--|
-----3--------3------------|--0--------0--------0-----|
---------------------------|--------------------------|
                                        F
---------------------------|--------------------------|
--3--------1--------0h--1--|--------1--------0--------|
---------------------------|--------------------------|
--------2--------2---------|--------------------------|
-----0--------0------------|-----3--------3--------3--|
---------------------------|--1--------1--------1-----|
                                        C
--------------------------|--------------------------|
--3--------1--------0--1--|--------1--------0--------|
--------------------------|-----0--------0--------0--|
--------------------------|--------------------------|
--------3--------3--------|--3--------3--------3-----|
-----1--------1-----------|--------------------------|
---------------------------|--------------------------|
--3--------1--------0h--1--|--------1--------0--------|
--------0--------0---------|-----0--------0--------0--|
---------------------------|--------------------------|
-----3--------3------------|--3--------3--------3-----|
---------------------------|--------------------------|
                                        Am
---------------------------|--------------------------|
--3--------1--------1p--0--|--------1--------0--------|
--------0--------0---------|--------------------------|
---------------------------|-----2--------2--------2--|
-----3--------3------------|--0--------0--------0-----|
---------------------------|--------------------------|
                                        F
---------------------------|--------------------------|
--3--------1--------0h--1--|--------1--------0--------|
---------------------------|--------------------------|
--------2--------2---------|--------------------------|
-----0--------0------------|-----3--------3--------3--|
---------------------------|--1--------1--------1-----|
E|----------------------
B|----------------------
G|----------------------
D|---------------0h2p0--
A|--3--2--0-------------
E|-----------3----------

Verse 1

C Our time is here again prepare to be Amapart and it Gdrives you crazy C Each time I go away the distance gets Amlonger but it Gmakes us stronger

Refrain

F Should it all come crashing Cdown around me? F Would you be there should I sGtumble and fall pick up the pieces

Chorus

C Woo-oh-oh care about the shit that we’ve been Amthrough I want to stay here forFever and always C Woo-oh-oh standing here in front of all of Amyou I want to stay here forFever and always

Verse 2

C These days are dead again it’s empty from Amthe start and it Gdrives me crazy C The hours drift away it hurts to rAmemember this will Gsoon be over

C

Guitar solo

Repeat Intro

Outro

Just Like Intro but Only Padge will do 12.) No Easy Way Out Key: F Chords used:

Intro

Dm-- x4, Bass Solo

Bass solo

G|-10-10-------------------------------------10-------------------
D|--------10--12------10-12--10-----------10----12-----10--12--10-
A|----------------13-------------13-12-13----------13-------------
E|----------------------------------------------------------------
Distortion: C-Dm--Bb-C-Dm--C-- x4, Dm-- x4

Verse 1

Dm When Im indestructable C baby betta get that straight B I think its unbelievable Am How you give into the hands of fate Dm Well somethings are worth fighting for C some feelings just never die B Im not asking for another chance Am I just wanna know why

Chorus 1

C Dm There's no Beasy Dmway Cout C Dm there's no Bshort Dmcut Chome C Dm there's no Beasy Dmway Cout C Dm giving in Bcant Dmbe Cwrong

Verse 2

Dm I dont want to pacify C I dont want to drag you down B but Im feeling like a prisonerAm like a stranger in a no name town Dm I see all the happy faces C afraid that could be you and me B Thinking about what might have beenAm thinking about how it used to be

C

Guitar solo

C-Dm--Bb-C-Dm--C-- x4

Interlude

Dm-- x4

Verse 3

Dm Baby maybe we could shed this skin we can know how we feel inside instead of going down this endless road not knowing if were dead or alive Dm Well somethings are worth fighting for C some feelings never die B Im not asking for another chance Am I just wanna know why

Chorus 2

C Dm There's no Beasy Dmway Cout C Dm there's no Bshort Dmcut Chome C Dm there's no Beasy Dmway Cout C Dm giving Bin Dmgiving Cin can't be wrong no

Chorus 3

C Dm There's no Beasy Dmway Cout C Dm there's no Bshort Dmcut Chome C Dm there's no Beasy Dmway Cout no Ceasy Dmno easy no Beasy Dmway Cout

C

Outro

C-Dm--Bb-C-Dm--C-- x8 13.) Ashes Of The Innocent Key: G Chords used:

Intro

Em--C--D-

Verse 1

Growl: EmAshes of the innocent the end for you and me CDarkened screams of agony are begging set me Dfree EmMourning all your loved ones as their bodies turn to stone CViolence, hate, and agony are what we've grown to Dknow

Chorus

Sing: EmHold me show me Cbring me to my Dknees So as the Emfire burns and the tables turn We'll Cnever rest in Dpeace Rest in peace!

Interlude

Em--C--D-

Verse 2

Growl: EmAshes of the innocent remind me of the past CTaking scars of victory the time has passed too Dfast EmSinging broken melodies like shards of broken glass CRipping through my reverie these scars will never Dlast

Guitar solo

C--D-Em-- x3, C-D-Em-D/F#-C-D

Interlude

Em--C--D-

Verse 3

EmAshes of the innocent the end for you and me CDarkened screams of agony are begging set me freeD

C

Outro

G D C

14.) Road To Nowhere Key: D Chords used:

Intro

Bm--G--Asus--D-A/C# Bm--G--Asus--A(hold)

Verse 1

Bm Tired and Glonely still we sAsustand On a road to noDwhereA/C Bm Trapped in a Gworld of endless Asusdays My engine's stalling (DRoad to A/Cnowhere) Bm Body and Gmind are breaking Asusdown On a road to noDwhereA/C Bm Destiny Gsilent hear no Asussound As I wait foreverD A/C

Chorus

GFarewell I'll A7miss you I'm Dsick of these goodBmbyes Cause it Gtore us apart right from the start A7 I miss you

Interlude

Bm--G--Asus--A(hold)

Verse 2

Bm Feelings have Gfailed me Left me Asuscold On this road to nowhere

D A/C

Bm Dreams are my Gsaviors Save me Asusnow Cause I know I'm falling (DOh A/Cyes)

C

Interlude

Distrotion: Bm-- x2 Bm-A-G--G-A-

Bridge

BmCandles burn slowly Flames shine so brightly Light in the darkness Save me from madBmness Aa-GgainG A BmOnly the lonely could possibly know me Heat keeps on rising Fire engulfs Bmme Aa-GgainA DKEEPS ON A/CRISING

Interlude

Bm--G--A--D-A/C# x2

C

Outro

D

15.) Watching Us Die Tonight Key: C Chords used:

Intro

AmF--G--Am----F--G

Verse 1

AmBack against the wall What the fuck just happened?

F G

Don

AmWe've been here before Bring it on, taking action

F G

Refrain

G I'm not gonna Amblame this Fon Cyou G I know I gave it Amall I FgotC G No, I'm not gonna Amblame this Fon Cyou G I'll tell you that its not your fault

Chorus

Am But honestly, you're killing me F I'm sick of us Gwasting time Am I took your heart, tore it apart F Watching us Gdie tonight

Interlude

Am--G-Am x4, C(hold)

Verse 2

AmTake me for a fool What the hell were you thinking?

F G

A

AmNow I have to choose Cause I'm done no more faking

F G

C

Interlude

F--Em-Dm-G--

Bridge

Em Em Dm F F--Em-Dm-G-- Everything will be alright Em Em Dm F F--Em-Dm-G-- I'm watching us die tonight Em Em Dm F F--Em-Dm-G-- Everything will be alright Em I'm watEmching Dmus Fdie tonight

C

Interlude

Am---F-G x2 Am(hold) 16.) One Good Reason Why Key: B Chords used:

Intro

Gm--Bb-F x4, Gm--Eb-F x2

Verse 1

Sing: Gm Your mouth is dry The moon is BshiFning Gm The night is cold and lonely For you this Bmust be Ffrightening Gm Send shivers down my spine Growl: There's something wrong in this Bhead of Fmine Sing: Gm Let's do it one more time Growl: You're never here in Bthis bed of Fmine

Refrain

Sing: E Give me one good reason Gmwhy I should spare sBpare you Fthrough toEnight Give me one good reason Gmwhy I should give you Bgive you Flove tonight

Chorus

Sing: GmBody shaking

B

Bod

EDarkness fading

F

Da

Post Chorus: Gm B FCan you Eplease keep screaming SFceaming blood for me

Interlude

Gm--Eb-F

Verse 2

Sing: Gm The sun is up I see things BclearFly Gm Your bruises show so bluntly For me this Bmust be Ftempting Gm Send shivers down my spine Growl: There's something wrong in this Bhead of Fmine Sing: Gm Let's do it one more time Growl: You're never here in Bthis bed of Fmine

C

C

Interlude

Gm--Eb--F--Dm- x2

Bridge

GmOne good reasonE Give me Fone good reason DmwhyB F/A GmOne good reasonE Give me Fone good reason DmwhyB F/A

C

C

Interlude

Gm--F-Gm--

Outro

Growl: Gm There's something Ewrong in this Fhead of DmmineGm