Bullet For My Valentine - Waking The Demon Chords

Main Riff
Main Riff
Main Riff
 
         
         
         
         
         
3
2
4
3 fr
         
         
         
         
         
1
3
4
2
1
1
         
         
         
         
         
2
1
3
4
3 fr
         
         
         
         
         
X
X
3
2
1
1
5 fr
         
         
         
         
         
X
X
1
3
4
3
7 fr
         
         
         
         
         
X
4
3
1
2
1

10 fr
         
         
         
         
         
X
1
2
3
4
X
10 fr
         
         
         
         
         
X
1
3
3
3
1
12 fr
         
         
         
         
         
3
2
1
1
1
4
         
         
         
         
         
2
3
3 fr
         
         
         
         
         
X
X
2
4
1
7 fr
         
         
         
         
         
X
1
3
4
2
1
2 fr
         
         
         
         
         
X
X
1
3
4
2
3 fr
         
         
         
         
         
X
3
2
4
1
4 fr
         
         
         
         
         
X
4
3
1
2
X

12 fr
         
         
         
         
         
1
3
4
1
1
1
         
         
         
         
         
X
1
2
3
5 fr
         
         
         
         
         
1
3
4
2
1
1
2 fr
         
         
         
         
         
X
1
1
1
4
         
         
         
         
         
X
X
1
2
2 fr
         
         
         
         
         
3
2
1
1
1
4
7 fr
         
         
         
         
         
X
X
1
3
4
3

9 fr
         
         
         
         
         
X
4
3
1
2
1
12 fr
         
         
         
         
         
X
1
3
3
3
1
         
         
         
         
         
X
3
2
1
3 fr
         
         
         
         
         
X
1
2
3
4
1
8 fr
         
         
         
         
         
1
3
4
2
1
1
3 fr
         
         
         
         
         
X
1
X
3
4
1
5 fr
         
         
         
         
         
3
2
1
1
1
4
10 fr
         
         
         
         
         
X
X
1
3
4
3

12 fr
         
         
         
         
         
X
4
3
1
2
1
3 fr
         
         
         
         
         
X
         
         
         
         
         
X
X
1
3
2
2 fr
         
         
         
         
         
X
4
3
1
2
1
5 fr
         
         
         
         
         
X
1
2
3
4
1
5 fr
         
         
         
         
         
X
1
4
4
4
X
7 fr
         
         
         
         
         
4
3
1
1
1
X
7 fr
         
         
         
         
         
3
2
1
1
1
4

10 fr
         
         
         
         
         
1
3
4
2
1
1
12 fr
         
         
         
         
         
X
X
1
3
4
3
5 fr
         
         
         
         
         
X
X
         
         
         
         
         
1
3
4
2
1
1
5 fr
         
         
         
         
         
X
4
3
1
2
1
3 fr
         
         
         
         
         
X
X
1
2
4
3
         
         
         
         
         
X
X
3
2
1
1
8 fr
         
         
         
         
         
X
1
3
3
3
1
10 fr
         
         
         
         
         
4
3
1
1
1
X

10 fr
         
         
         
         
         
3
2
1
1
1
4
         
         
         
         
         
X
1
3
4
2
1
7 fr
         
         
         
         
         
1
3
4
1
1
1
         
         
         
         
         
X
1
3
4
2
X
7 fr
         
         
         
         
         
X
X
3
1
1
1
9 fr
         
         
         
         
         
X
X
1
3
4
2
11 fr
         
         
         
         
         
X
4
3
1
2
X
7 fr
         
         
         
         
         
1
3
4
2
1
1
         
         
         
         
         
X
2
1
X
3
         
         
         
         
         
X
1
4
4
4
X
         
         
         
         
         
X
1
3
3
3
1
4 fr
         
         
         
         
         
4
3
1
1
1
X
4 fr
         
         
         
         
         
3
2
1
1
1
4

9 fr
         
         
         
         
         
X
X
1
3
4
3
11 fr
         
         
         
         
         
X
4
3
1
2
1
No chord
Standard guitar tuning:
E
A
D
G
B
E
No capo
Key: G Chords used:

Intro

Matt: x means palm mute
                 Em                             Em

G

e|---------------------------------|-------------------------|---|---| B|---------------------------------|-------------------------|---|---| G|---------------------------------|-------------------------|---|---| D|-2-------------------------------|-2-----------------------|-3-|-5-| A|-2-------3-2-----5-2-------------|-2-------3-2-----5-2-----|-3-|-5-| E|-0-0-0-0-----0-0-----0-0-1-0-3-0-|-0-0-0-0-----0-0-----0-0-|-1-|-3-|
x x x x x x x x x x x x x x
                 Em                         Em
e|---------------------------------|--------------------|
B|---------------------------------|--------------------|
G|---------------------------------|--------------------|
D|-2-------------------------------|-2----------------2-|
A|-2-------3-2-----5-2-------------|-2-------3-2------2-|
E|-0-0-0-0-----0-0-----0-0-1-0-3-0-|-0-0-0-0-----0-0--0-|
x x x x x x x x x x x x
       Em
e|-------------|
B|-------------|
G|-------------|
D|-2-----------|
A|-2-sustained-
E|-0-----------
Matt: x4
                 Em                             Em

G

e|---------------------------------|-------------------------|---|---| B|---------------------------------|-------------------------|---|---| G|---------------------------------|-------------------------|---|---| D|-2-------------------------------|-2-----------------------|-3-|-5-| A|-2-------3-2-----5-2-------------|-2-------3-2-----5-2-----|-3-|-5-| E|-0-0-0-0-----0-0-----0-0-1-0-3-0-|-0-0-0-0-----0-0-----0-0-|-1-|-3-|
x x x x x x x x x x x x x x
                 Em                         Em
e|---------------------------------|--------------------|
B|---------------------------------|--------------------|
G|---------------------------------|--------------------|
D|-2-------------------------------|-2----------------2-|
A|-2-------3-2-----5-2-------------|-2-------3-2------2-|
E|-0-0-0-0-----0-0-----0-0-1-0-3-0-|-0-0-0-0-----0-0--0-|
x x x x x x x x x x x x
   C         D
e|---|-----------------|
B|---|-----------------|
G|-5-|-----------------|
D|-5-|-5p0h2p0---------|
A|-3-|---------3p2h3p2-|
E|---|-----------------|
x2 Michael: x means palm mute x5
                 Em                             Em

G

e|---------------------------------|-------------------------|---|---| B|---------------------------------|-------------------------|---|---| G|---------------------------------|-------------------------|---|---| D|-2-------------------------------|-2-----------------------|-3-|-5-| A|-2-------3-2-----5-2-------------|-2-------3-2-----5-2-----|-3-|-5-| E|-0-0-0-0-----0-0-----0-0-1-0-3-0-|-0-0-0-0-----0-0-----0-0-|-1-|-3-|
x x x x x x x x x x x x x x
                 Em                             Em
e|---------------------------------|---------------------------------|
B|---------------------------------|---------------------------------|
G|---------------------------------|---------------------------------|
D|-2-------------------------------|-2---------------5p0h2p0---------|
A|-2-------3-2-----5-2-------------|-2-------3-2-------------3p2h3p2-|
E|-0-0-0-0-----0-0-----0-0-1-0-3-0-|-0-0-0-0-----0-0-----------------|
x x x x x x x x x x x x
   C         D
e|---|-----------------|
B|---|-----------------|
G|-5-|-2p0h2p0---------|
D|-5-|---------4p0h2p0-|
A|-3-|-----------------|
E|---|-----------------|
will only play at matt's 2nd turn

Verse 1

Growl: EmHelpless my eyes are bleeding Ffrom Gthe Emfear that's inside You sealed your demise when you took what was mine Dont try and stop me Ffrom Gavenging this Emworld No voice to be heard

Chorus

Sing: EmWaking the Demon CWhere'd Dya Emrun toC D EmWalking in shadows CWatch Dthe Emblood flowC D Sing: C Theres not much longer so Bmdont try and fight Em Your bodies weakening so Dwalk to the light C All those painfull times so aBmlone so ashamed Growl: I'm Emnot coming back there's nothing to gain

Verse 2

Growl: EmCaution there's just no limits Fto Gthe Emboundaries you push I've warned you but still you just fuck with my mind There's no escape Ffrom Gthis Emrage that i feel Nothing is real

C

Bridge

Sing: CBreath for meD Em Don't wake me from this slumber C Stay with meD Em Possession taking over
Michael: While doing Bridge

C D Em

e|-2---3---|-2---3-0-|-2---3---5---3---2---3---| B|---3---3-|---3-----|---3---3---3---3---3---3-| G|---------|---------|-------------------------| D|---------|---------|-------------------------| A|---------|---------|-------------------------| E|---------|---------|-------------------------|
      C         D                      Em
e|-2---3---|-2---3-0-|-2---3---5---3---2---10pinch-harmonic-|
B|---3---3-|---3-----|---3---3---3---3---3------------------|
G|---------|---------|--------------------------------------|
D|---------|---------|--------------------------------------|
A|---------|---------|--------------------------------------|
E|---------|---------|--------------------------------------|
      C         D                Em
e|-2---3---|-2---3-0-|-2---3---5---3---2---3---|
B|---3---3-|---3-----|---3---3---3---3---3---3-|
G|---------|---------|-------------------------|
D|---------|---------|-------------------------| x2
A|---------|---------|-------------------------|
E|---------|---------|-------------------------|

Interlude

Em--F-Em x3, Em--F-Em-F-Em x5

Guitar solo

Em-- x8 C-Bm-Em-D-C-Bm-Em--

B

Outro

EmWaking the Demon