Burden Brothers - If Youre Going To Heaven Chords

 
         
         
         
         
X
X
1
3
2
2 fr
         
         
         
         
X
4
3
1
2
1
5 fr
         
         
         
         
X
1
2
3
4
1
5 fr
         
         
         
         
X
1
4
4
4
X
7 fr
         
         
         
         
4
3
1
1
1
X
7 fr
         
         
         
         
3
2
1
1
1
4

10 fr
         
         
         
         
1
3
4
2
1
1
12 fr
         
         
         
         
X
X
1
3
4
3
5 fr
         
         
         
         
X
X
         
         
         
         
X
X
2
3
1
5 fr
         
         
         
         
X
1
3
4
2
1
10 fr
         
         
         
         
X
X
1
1
1
5 fr
         
         
         
         
X
X
3
2
1
2 fr
         
         
         
         
X
4
3
1
2
X
10 fr
         
         
         
         
1
3
4
1
1
1

12 fr
         
         
         
         
X
X
1
3
4
2
         
         
         
         
X
1
2
3
5 fr
         
         
         
         
1
3
4
2
1
1
2 fr
         
         
         
         
X
1
1
1
4
         
         
         
         
X
X
1
2
2 fr
         
         
         
         
3
2
1
1
1
4
7 fr
         
         
         
         
X
X
1
3
4
3

9 fr
         
         
         
         
X
4
3
1
2
1
12 fr
         
         
         
         
X
1
3
3
3
1

Fm

variations
         
         
         
         
1
3
4
1
1
1
4 fr
         
         
         
         
X
X
1
3
4
2
         
         
         
         
X
X
3
1
1
1
9 fr
         
         
         
         
X
1
3
4
2
1
6 fr
         
         
         
         
X
4
3
1
2
X
         
         
         
         
X
1
3
4
2
1
7 fr
         
         
         
         
1
3
4
1
1
1
         
         
         
         
X
1
3
4
2
X
7 fr
         
         
         
         
X
X
3
1
1
1
9 fr
         
         
         
         
X
X
1
3
4
2
11 fr
         
         
         
         
X
4
3
1
2
X
         
         
         
         
2
3
1
4 fr
         
         
         
         
X
4
3
1
2
1
7 fr
         
         
         
         
X
1
4
4
4
X
2 fr
         
         
         
         
X
X
1
2
4
3
4 fr
         
         
         
         
4
3
1
2
1
7 fr
         
         
         
         
X
1
3
3
3
1

9 fr
         
         
         
         
4
3
1
1
1
X
9 fr
         
         
         
         
3
2
1
1
1
4
12 fr
         
         
         
         
1
3
4
2
1
1
4 fr
         
         
         
         
X
No chord
Standard guitar tuning:
E
A
D
G
B
E
No capo
D              Dm        A
   If you're goin, to heaven
                              e-----7--7------5--5-----------
                              B ----7--7------5--5-----------
 D          Dm                 A
   And you think you know the way
                                e-----7--7------5--5-----------
                                B ----7--7------5--5-----------
D Please sDmhow me the right direAction And ill fFmollow you Bm I wonEt let you get away A
D              Dm              A
   And you're heart is sad and heavy
                                        e-----7--7------5--5-----------
                                        B ----7--7------5--5-----------
D                Dm                A
  You hide your face behind your hands
                                       e-----7--7------5--5-----------
                                       B ----7--7------5--5-----------
D If youll tDmake a chance and Alet me Ill fFmollow you Bm I will Ealways be your mAan
e---x--x------x-----x—x-
B---x--x------x-----x—x-
G---x--x------x-----x—x-
D---x--x------x-----x—x-
A---x--x------x-----x—x-
E---x--x------x-----x—x-
Bm                             F#m-----E
You know I don't need your attention
Bm                                F#m-----E
I don't need your pity or your grief D Im not a Dmslave to your aAffection Fm Im a slave to your belief E
D              Dm       A
   So if youre goin to heaven
                            e-----7--7------5--5-----------
                            B ----7--7------5--5-----------
D          Dm             A
   Say you wont leave me behind
                             e-----7--7------5--5-----------
                             B ----7--7------5--5-----------
D Cause without Dmyou, im as heAlpless as a lFmittle child Bm Girl I nEeed you by my sAide.......yeah
e---------------------------------?---------------------------------------
B---------------------------------?---------------------------------------
G----/11-----/10-----/9-----------?-------/11----/13----/14--------/19/---
D---------------------------------?---------------------------------------
A---------------------------------?---------------------------------------
E---------------------------------?---------------------------------------
e-------------------------------------------------------------------------
B-------------------------------------------------------------------------
G-----/14-13h-11h-14--------7---9---10------------------------------------
D------------------------------------------11b---7--9--11—9h-7h-9---------
A-------------------------------------------------------------------------
E-------------------------------------------------------------------------
e-------------------------------------------------------------------------
B---9-9-7---9-----------7--9--7--10---------------------------------------
G-------------7-----------------------------------------------------------
D---------------9--7------------------------------------------------------
A-------------------------------------------------------------------------
E-------------------------------------------------------------------------
e---x--x------x-----x—x-
B---x--x------x-----x—x-
G---x--x------x-----x—x-
D---x--x------x-----x—x-
A---x--x------x-----x—x-
E---x--x------x-----x—x-
Bm                              F#m--------E
You know I don't need your attention......NO!
Bm                                           F#m--------E
I don't need your pity, I don't need your grief D Im not a Dmslave to your aAffection Fm Im a slave to yourE belief
D               Dm      A
   So if you're goin to heaven
                               e-----7--7------5--5-----------
                               B ----7--7------5--5-----------
D             Dm                 A
   And you're sure you know the way
                               e-----7--7------5--5-----------
                               B ----7--7------5--5-----------
D Please sDmhow me the right dAirection and ill Fmfollow you Bm E A--G#m--F#m I wont be let you get away....no, no Bm I wont Elet you get awAay