Burden Brothers - Shes Not Home Chords

 
No chord
Standard guitar tuning:
E
A
D
G
B
E
No capo
  phone                              her fingers found it as she
E|---------------------------------------------------------------------|E
B|---------------------------------9--9-9--9--9-9--8--8-8--8--8-8------|B
G|-8--8-8--8--8-8--8--8-8--8--8-8--9--9-9--9--9-9--9--9-9--9--9-9------|G
D|-9--9-9--9--9-9--9--9-9--9--9-9--9--9-9--9--9-9--9--9-9--9--9-9------|D
A|-9--9-9--9--9-9--9--9-9--9--9-9--7--7-7--7--7-7--7--7-7--7--7-7------|A
E|-7--7-7--7--7-7--7--7-7--7--7-7--------------------------------------|E
  slept alone                        she wonders who that voice could
E|---------------------------------------------------------------------|E
B|---------------------------------9--9-9--9--9-9--8--8-8--8--8-8------|B
G|-8--8-8--8--8-8--8--8-8--8--8-8--9--9-9--9--9-9--9--9-9--9--9-9------|G
D|-9--9-9--9--9-9--9--9-9--9--9-9--9--9-9--9--9-9--9--9-9--9--9-9------|D
A|-9--9-9--9--9-9--9--9-9--9--9-9--7--7-7--7--7-7--7--7-7--7--7-7------|A
E|-7--7-7--7--7-7--7--7-7--7--7-7--------------------------------------|E
  be               the sound         of brea-------------------kin down
E|---------------------------------------------------------------------|E
B|---------------------------------------------------------------------|B
G|-8--8-8--8--8-8------------------------------------------------------|G
D|-9--9-9--9--9-9--6--6-6--6--6-6--------------------------------------|D
A|-9--9-9--9--9-9--6--6-6--6--6-6--4--4-4--4--4-4--4--4-4--4--4-4--4---|A
E|-7--7-7--7--7-7--4--4-4--4--4-4--2--2-2--2--2-2--2--2-2--2--2-2--2---|E
  all       around her all alone        she's not home   she fumbles for the
E|---------------------------------------------------------------------|E
B|------------------------------9--9-9--9--9-9-----8-8--8--8-8--8------|B
G|------------------------------9--9-9--9--9-9--9--9-9--9--9-9--9------|G
D|------------------------------9--9-9--9--9-9--9--9-9--9--9-9--9------|D
A|-4-4--4--4-4--4-4--4--4--4-4--7--7-7--7--7-7--7--7-7--7--7-7--7------|A
E|-2-2--2--2-2--2-2--2--2--2-2-----------------------------------------|E
light to make some sense of this
E|---------------------------------------------------------------------|E
B|---------------------------------9--9-9--9--9-9--8--8-8--8--8-8------|B
G|-8--8-8--8--8-8--8--8-8--8--8-8--9--9-9--9--9-9--9--9-9--9--9-9------|G
D|-9--9-9--9--9-9--9--9-9--9--9-9--9--9-9--9--9-9--9--9-9--9--9-9------|D
A|-9--9-9--9--9-9--9--9-9--9--9-9--7--7-7--7--7-7--7--7-7--7--7-7------|A
E|-7--7-7--7--7-7--7--7-7--7--7-7--------------------------------------|E
  bizaar, twisted night               and as her eyes adjust she
E|---------------------------------------------------------------------|E
B|---------------------------------9--9-9--9--9-9--8--8-8--8--8-8------|B
G|-8--8-8--8--8-8--8--8-8--8--8-8--9--9-9--9--9-9--9--9-9--9--9-9------|G
D|-9--9-9--9--9-9--9--9-9--9--9-9--9--9-9--9--9-9--9--9-9--9--9-9------|D
A|-9--9-9--9--9-9--9--9-9--9--9-9--7--7-7--7--7-7--7--7-7--7--7-7------|A
E|-7--7-7--7--7-7--7--7-7--7--7-7--------------------------------------|E
  blinks,         she thinks       she'll move along
E|---------------------------------------------------------------------|E
B|---------------------------------------------------------------------|B
G|-8--8-8--8--8-8------------------------------------------------------|G
D|-9--9-9--9--9-9--6--6-6--6--6-6--------------------------------------|D
A|-9--9-9--9--9-9--6--6-6--6--6-6--4-4-6-4-4-4-6-4-4-4-6-4-4-4-6-4-----|A
E|-7--7-7--7--7-7--4--4-4--4--4-4--2-2-2-2-2-2-2-2-2-2-2-2-2-2-2-2-----|E
  and dig a deep hole all her own   She's not home    She' not
E|---------------------------------------------------------------------|E
B|------------------------------------9-9--9--9-9-----8-8--8--8-8------|B
G|---------------------------------------------------------------------|G
D|---------------------------------9--9-9--9--9-9--9--9-9--9--9-9------|D
A|-4-4-6-4-4-4-6-4-4-4-6-4-4-4-6-4-7--7-7--7--7-7--7--7-7--7--7-7------|A
E|-2-2-2-2-2-2-2-2-2-2-2-2-2-2-2-2-------------------------------------|E
  home
E|-----------------------------------|E
B|-----------------------------------|B
G|-8-8--8--8-8--8--8-8--8--8-8-8-----|G
D|-9-9--9--9-9--9--9-9--9--9-9-9-----|D
A|-9-9--9--9-9--9--9-9--9--9-9-9-----|A
E|-7-7--7--7-7--7--7-7--7--7-7-7-----|E
  and all your bad dreams go away
E|--------------------------------------------------------------------|E
B|--------------------------------------------------------------------|B
G|--------------------------------------------------------------------|G
D|-9--9-9--9--9-9--11-1111-11-1111------------------------------------|D
A|-7--7-7--7--7-7--9--9-9--9--9-9--9--9-9--9--9-9--9--9-9--9--9-9-----|A
E|---------------------------------7--7-7--7--7-7--7--7-7--7--7-7-----|E
  and all your demons are kept at bay
E|--------------------------------------------------------------------|E
B|--------------------------------------------------------------------|B
G|--------------------------------------------------------------------|G
D|-9--9-9--9--9-9--11-1111-11-1111------------------------------------|D
A|-7--7-7--7--7-7--9--9-9--9--9-9--9--9-9--9--9-9--9--9-9--9--9-9-----|A
E|---------------------------------7--7-7--7--7-7--7--7-7--7--7-7-----|E
  and all you gotta do           is say            you made
E|--------------------------------------------------------------------|E
B|--------------------------------------------------------------------|B
G|--------------------------------------------------------------------|G
D|-9--9-9--9--9-9--11-1111-11-1111-----------------9--9-9--9--9-9-----|D
A|-7--7-7--7--7-7--9--9-9--9--9-9--9--9-9--9--9-9--7--7-7--7--7-7-----|A
E|---------------------------------7--7-7--7--7-7---------------------|E
  a big mistake when you left me
E|-------------------------------------|E
B|-------------------------------------|B
G|-------------------------------------|G
D|-9--9-9--9--9-9--11-1111-11-1111-----|D
A|-7--7-7--7--7-7--9--9-9--9--9-9------|A
E|-------------------------------------|E
                                   I lay down my troubles
E|---------------------------------------------------------------------|E
B|---------------------------------9--9-9--9--9-9--8--8-8--8--8-8------|B
G|-8--8-8--8--8-8--8--8-8--8--8-8--9--9-9--9--9-9--9--9-9--9--9-9------|G
D|-9--9-9--9--9-9--9--9-9--9--9-9--9--9-9--9--9-9--9--9-9--9--9-9------|D
A|-9--9-9--9--9-9--9--9-9--9--9-9--7--7-7--7--7-7--7--7-7--7--7-7------|A
E|-7--7-7--7--7-7--7--7-7--7--7-7--------------------------------------|E
                                  I love to carry all that weight
E|---------------------------------------------------------------------|E
B|---------------------------------9--9-9--9--9-9--8--8-8--8--8-8------|B
G|-8--8-8--8--8-8--8--8-8--8--8-8--9--9-9--9--9-9--9--9-9--9--9-9------|G
D|-9--9-9--9--9-9--9--9-9--9--9-9--9--9-9--9--9-9--9--9-9--9--9-9------|D
A|-9--9-9--9--9-9--9--9-9--9--9-9--7--7-7--7--7-7--7--7-7--7--7-7------|A
E|-7--7-7--7--7-7--7--7-7--7--7-7--------------------------------------|E
                                  I come to you.
E|---------------------------------------------------------------------|E
B|---------------------------------9--9-9--9--9-9--8--8-8--8--8-8------|B
G|-8--8-8--8--8-8--8--8-8--8--8-8--9--9-9--9--9-9--9--9-9--9--9-9------|G
D|-9--9-9--9--9-9--9--9-9--9--9-9--9--9-9--9--9-9--9--9-9--9--9-9------|D
A|-9--9-9--9--9-9--9--9-9--9--9-9--7--7-7--7--7-7--7--7-7--7--7-7------|A
E|-7--7-7--7--7-7--7--7-7--7--7-7--------------------------------------|E
   over..............yeah         now I give in    you win
E|---------------------------------------------------------------------|E
B|---------------------------------------------------------------------|B
G|-8--8-8--8--8-8------------------------------------------------------|G
D|-9--9-9--9--9-9--6--6-6--6--6-6--------------------------------------|D
A|-9--9-9--9--9-9--6--6-6--6--6-6--4-4-6-4-4-4-6-4-4-4-6-4-4-4-6-4-----|A
E|-7--7-7--7--7-7--4--4-4--4--4-4--2-2-2-2-2-2-2-2-2-2-2-2-2-2-2-2-----|E
  I diggin my own hole      she's not home    she's not home
E|---------------------------------------------------------------------|E
B|------------------------------------9-9--9--9-9-----8-8--8--8-8------|B
G|---------------------------------------------------------------------|G
D|---------------------------------9--9-9--9--9-9--9--9-9--9--9-9------|D
A|-4-4-6-4-4-4-6-4-4-4-6-4-4-4-6-4-7--7-7--7--7-7--7--7-7--7--7-7------|A
E|-2-2-2-2-2-2-2-2-2-2-2-2-2-2-2-2-------------------------------------|E
That' all I ve figured out so far. the chorus can also be played like this
  and all your bad dreams go away
E|---------------------------------------------------------------------|E
B|---------------------------------------------------------------------|B
G|---------------------------------------------------------------------|G
D|---------------------------------4--4-4--4--4-4--4--4-4--4--4-4------|D
A|-2--2-2--2--2-2--4--4-4--4--4-4--2--2-2--2--2-2--2--2-2--2--2-2------|A
E|-0--0-0--0--0-0--2--2-2--2--2-2--------------------------------------|E
  and all your fears are kept at bay
E|---------------------------------------------------------------------|E
B|---------------------------------------------------------------------|B
G|---------------------------------------------------------------------|G
D|---------------------------------4--4-4--4--4-4--4--4-4--4--4-4------|D
A|-2--2-2--2--2-2--4--4-4--4--4-4--2--2-2--2--2-2--2--2-2--2--2-2------|A
E|-0--0-0--0--0-0--2--2-2--2--2-2--------------------------------------|E
  and all you gotta do           is say            you made
E|---------------------------------------------------------------------|E
B|---------------------------------------------------------------------|B
G|---------------------------------------------------------------------|G
D|---------------------------------4--4-4--4--4-4----------------------|D
A|-2--2-2--2--2-2--4--4-4--4--4-4--2--2-2--2--2-2--2--2-2--2--2-2------|A
E|-0--0-0--0--0-0--2--2-2--2--2-2------------------0--0-0--0--0-0------|E
  a big mistake when you left me
E|------------------------------------|E
B|------------------------------------|B
G|------------------------------------|G
D|------------------------------------|D
A|-2--2-2--2--2-2--4--4-4--4--4-4-----|A
E|-0--0-0--0--0-0--2--2-2--2--2-2-----|E