Caramelos De Cianuro - Sanitarios Chords

Main Riff
Main Riff
 
3 fr
         
         
         
         
         
1
3
4
X
X
X
5 fr
         
         
         
         
         
X
X
1
3
4
X
10 fr
         
         
         
         
         
X
1
3
4
X
X
         
         
         
         
         
X
3 fr
         
         
         
         
         
X
X
3 fr
         
         
         
         
         
X
1
3
4
X
X
8 fr
         
         
         
         
         
1
3
4
X
X
X
10 fr
         
         
         
         
         
X
X
1
3
4
X
3 fr
         
         
         
         
         
X
X
         
         
         
         
         
X
1
2
X
X
5 fr
         
         
         
         
         
1
3
4
X
X
X
7 fr
         
         
         
         
         
X
X
1
3
4
X
         
         
         
         
         
X
X
5 fr
         
         
         
         
         
X
X
5 fr
         
         
         
         
         
X
X
         
         
         
         
         
1
1
X
X
X
2 fr
         
         
         
         
         
X
X
1
3
4
X
7 fr
         
         
         
         
         
X
1
3
4
X
X
         
         
         
         
         
X
X
X
7 fr
         
         
         
         
         
X
X
         
         
         
         
         
X
X
1
2
X
5 fr
         
         
         
         
         
X
1
3
4
X
X
10 fr
         
         
         
         
         
1
3
4
X
X
X
No chord
    
Standard guitar tuning:
E
A
D
G
B
E
No capo
ACORDES
  -------------|
+----+---------|

| G5 | 355xxx |

+----+--------+

| C5 | x355xx |

+----+--------+

| A5 | 577xxx |

+----+--------+

| E5 | 022xxx |

+----+--------+

| D5 | x577xx |

+----+--------+

Intro 1

e|---------------------------------------|
B|---------------------------------------|
G|---------------------------------------|
D|---------------------5---5---5---------|
A|-----5---5---5---3-3---3---3---3-------|
E|-3-3---3---3---3-----------------------|
e|---------------------------------------|
B|---------------------------------------|
G|---------------------------------------|
D|---------------------------------------|
A|-----7---7---7---7---7---7-------------|
E|-5-5---5---5---5---5---5---------------|

Intro 2

<-- este intro va con distorsion
     G5      C5         A5
e|---------------------------------------|
B|---------------------------------------|
G|----------5-5-5-5----------------------|
D|-5-5-5-5--5-5-5-5--7-7-7-7-7-7---------|
A|-5-5-5-5--3-3-3-3--7-7-7-7-7-7---------|
E|-3-3-3-3-----------5-5-5-5-5-5---------|
e|-----------------------------------------------------------------|
B|-----------------------------------------------------------------|
G|---------------7-7-7-7-9-9-9-9-----------------------------------|
D|--9-9-9-9-9-9----------------------------------------------------|
A|-------------------------------9-9-9-9-9-9-12-12-12-10-10-10-9-9-|
E|-----------------------------------------------------------------|
G5Esta suerte nos coC5loca frente a frente aqui hD5oy Sé que no haz venido sola yo tampoco lo esD5toy Todo el mundo esta obsC5ervando nuestro encuentro caD5sual Yo sé bien que está mal, yo sé bien que está mal G5 G5Que la musica tan aC5lta no es comuD5nicación Por que no vamos a un sitio donde estemos meG5jor Y nos desaparC5ecemos de este evento soD5cial Puedes ver que me brillan los ojos -CORO- G5Te veo en diez minutos en el foC5ndo de los saniD5tarios Nuestro encuentro es justo y necG5esario, No soC5porto tenerte leD5jos quiero hacertelo frente al espG5ejo Siempre te hC5az deshiD5nibido ante los actos prohG5ibidos Si tu siC5entes lo que siD5ento aprovechemos el moG5mento G5Son las cosas tontas queC5 me hace decir el aD5lcohol Que no puedo sino pedirte mil veces peG5rdon A demas, en algun C5sitio alguien te debe eD5sperar no te quiero atrasar, no te quiero atrasar G5 Me paceria juC5sto que algo pienses taD5mbien Que cuando estubimos juntos la pasamos muy bG5ien Teniendote tan ceC5rca reconosco el oD5lor De la parte de atras de tu cuello -CORO- G5Te veo en diez minutos en el foC5ndo de los saniD5tarios Nuestro encuentro es justo y necG5esario, No soC5porto tenerte leD5jos quiero hacertelo frente al espG5ejo Siempre te hC5az deshiD5nibido ante los actos prohG5ibidos Si tu siC5entes lo que siD5ento aprovechemos el moG5mento E5 No tengo que hC5ablar y no tienes que haG5blar Por una bella noD5che noche mágE5ica ¿Cuanto te atC5reves a arrieG5sgar? E5Sé que tienes tuC5 vida muy lejos de la mG5ia Solo un moD5mento nadE5a más Si parC5padeas ya no eG5stá -CORO- G5Te veo en diez minutos en el foC5ndo de los saniD5tarios Nuestro encuentro es justo y necG5esario, No soC5porto tenerte leD5jos quiero hacertelo frente al espG5ejo Siempre te hC5az deshiD5nibido ante los actos prohG5ibidos Si tu siC5entes lo que siD5ento aprovechemos el moG5mento Espero y disfruten de la rola, nosotros la buscamos aqui y como no la encontramos ayudarles con esta rola ......