Cheap Trick - Mighty Wings Chords

 
No chord
Standard guitar tuning:
E
A
D
G
B
E
No capo
e|---------------------------------------------|
B|---------------------------------------------|
G|--10-----10--8--6------6-8-10------------10--|
D|--10-----10--8--6------6-8-10------------10--|
A|--8------8---6--4------4-6-8-------------8---|
E|---------------------------------------------|
e|--------------------------------------------|
B|--10---8---6--------6-------------6--8--10--|
G|--10---8---6--------6-------------6--8--10--|
D|--8----6---4--------4-------------4--6--8---|
A|--------------------------------------------|
E|--------------------------------------------|
e|-----------------------------------------------------------------------------------|
B|--Bridge---------------------------------------------------------------------------|
G|-----------------------------------------------------------------------------------|
D|--8--10----------------------------------------------------------------------------|
A|--8--10----------------------------------------------------------------------------|
E|--6--8-----------------------------------------------------------------------------|
e|-----------------------------------------------|
B|-----------------------------------------------|
G|-----------------------------------------------|
D|--12--10--8--------12--7------12--10--8-----5--|
A|--12--10--8--------12--7------12--10--8-----5--|
E|--10--8---6--------10--5------10--8---6-----3--|
e|---------------------------|
B|---------------------------|
G|---------------------------|
D|---8--10--12---------------|
A|---8--10--12-------Repeat--|
E|---6--8---10---------------|