Cheap Trick - Youre All Talk Chords

 
No chord
Standard guitar tuning:
E
A
D
G
B
E
No capo
e|---------------------------------------------------------------------------|
B|---------------------------------------------------------------------------|
G|------------------3-5---------------6-5-3----------------------------------|
D|----5-3--5-3--5-3--------5-3-5-3-5-----------------------------------------|
A|---------------------------------------------------------------------------|
E|---------------------------------------------------------------------------|
Repeats throughout with augmentations
  One type of augmentation Rick uses:
e|---------------------------------------------------------------------------|
B|----------------3--5------------------------------------------------------ |
G|----------------3--5---------653-------------------------------------------|
D|---5-3-5-3--5-3------53-53-5-----------------------------------------------|
A|---------------------------------------------------------------------------|
E|---------------------------------------------------------------------------|
   The "melody" line over "Please don't go" while Rick riffs furiously:
e|---------------------------------------3-----------------------------------|
B|---------------------------------------0-----------------------------------|
G|---------------------------------------0-----------------------------------|
D|------5-------------5------------------0-----------------------------------|
A|---------53------------5353------------2-----------------------------------|
E|------------------------------63-------3-----------------------------------|
  Descending  riff Rick uses prior to lead insanity:
e|---------------------------------------------------------------------------|
B|---------------------------------------------------------------------------|
G|---------------------------------------------------------------------------|
D|---------------------------------------------------------------------------|
A|-----0-----3-2-1---0----3-2-1------0----3-2-1------------------------------|
E|---------------------------------------------------------------------------|
Lead is based around the 12th fret based around this figure:
e|---------13--13--12-13--12-13-12-13--12-13-12-13-12-13-15-15--13-12-12-----|
B|---------------------------------------------------------------------------|
G|---------------------------------------------------------------------------|
D|---------------------------------------------------------------------------|
A|---------------------------------------------------------------------------|
E|---------------------------------------------------------------------------|
Rick uses lots of feedback and whangbar pyrotechnics throughout the lead