Chris Isaak - You Owe Me Some Kind Of Love Chords

 
         
         
         
         
         
1
3
4
1
1
1
         
         
         
         
         
X
X
3
1
1
1
3 fr
         
         
         
         
         
X
X
1
3
4
2
8 fr
         
         
         
         
         
X
1
3
4
2
1
5 fr
         
         
         
         
         
X
4
3
1
2
X

Bm

variations
         
         
         
         
         
X
1
3
4
2
1
6 fr
         
         
         
         
         
1
3
4
1
1
1
         
         
         
         
         
X
1
3
4
2
X
6 fr
         
         
         
         
         
X
X
3
1
1
1
8 fr
         
         
         
         
         
X
X
1
3
4
2
10 fr
         
         
         
         
         
X
4
3
1
2
X
No chord
    
Standard guitar tuning:
E
A
D
G
B
E
No capo
Signature Riff:
|------------| They use slight variations of this main riff all though the song. Sometimes they
|------------| hit the G string note twice or they will refrain to the D and back to the G, but
|--------1vv-| this riff will get you started. Just listen to the CD and you'll grab than Hang
|------3-----| Ten out it!
|----3-------|                                  Tab Key:   V= Vibrato      H=Hammer On
|--1---------|                                               S= Slide      P= Pull Off

Intro

Fb chord fading with volume control. The it's a Fm chord overlayed with the main riff and a few neck slides her and ther for variety.

Verse 1

TFmhink of all the things we've done and now, yoFmu've decided I'm not the one. AFm love like ours just can't go wrong, ruFmn away baby have your fun but, IFm, I, I, I, donBm't wana hurt you I don't wannFma see you cry.

Fm Bm

Fm Signautre Riff I, I, I, I, just wanna hold your love tonight. Fm Signature Riff You owe me some kind of love.

Verse 2

IFm don't want to see you sad I don't want ya, feFmeling down I only want ya, TFmo say you love me and you need me, thFme way I love you please believe me. IFm, I, I, I, donBm't wana hurt you I don't wannFma see you cry.

Fm Bm

Fm Signature Riff I, I, I, I, just wanna hold your love tonight. Fm Signature Riff You owe me some kind of love. YFmou owe me some kind of love.

Solo 1

Fm

|--------------------------------|--------------------------------|
|--18-18--13-13-6-6-1s4-6-6-4-6--|--18-18--13-13-6-6-1s4-6-6-4-6--|
|--------------------------------|--------------------------------|
|--------------------------------|--------------------------------|
|--------------------------------|--------------------------------|
|--------------------------------|--------------------------------|
|--------------------------------|---------------------------------------------------------1--|
|--13-13-13-13--6-6-1s4-6-6-4-6--|--18-18--13-13-6-6-1s4s1----------1s4s1------------------1--|
|--------------------------------|-------------------------3-1-1----------3-1-1------------1--|
|--------------------------------|-----------------------------------------------1h3-3-1---3--|
|--------------------------------|-------------------------------------------------------1-3--|
|--------------------------------|---------------------------------------------------------1--|

Verse 3

TFmhink of all the things we've done and now, yoFmu've decided I'm not the one. AFm love like ours just can't go wrong, ruFmn away baby have your fun but, IFm, I, I, I, donBm't wana hurt you I don't wannFma see you cry. IFm, I, I, I, jusBmt want you back I don't wantFm to fight.

Fm Bm

Fm Signature Riff I, I, I, I, just wanna hold you love tonight. Fm Signautre Riff You owe me some kind of love. Fm Signature Riff You owe me some kind of love. HFmelp!

Solo 2

Fm
|----------------------------------------|--------------------------------------|
|--18-18-18-18--13-13-13-13--10------10--|--13-13-13-13--10-10-9-10-10-10-9-10--|
|--17-17-17-17--13-13-13-13--10--13--10--|--13-13-13-13--10-10-9-10-10-10-9-10--|
|--------------------------------13------|--------------------------------------|
|----------------------------------------|--------------------------------------|
|----------------------------------------|--------------------------------------|
|----------------------------------------|--------------------------------------|
|--18-18-18-18--13-13-13-13--10------10--|--13-13-13-13--10-10-9-10-10-10-9-10--|
|--17-17-17-17--13-13-13-13--10--13--10--|--13-13-13-13--10-10-9-10-10-10-9-10--|
|--------------------------------13------|--------------------------------------|
|----------------------------------------|--------------------------------------|
|----------------------------------------|--------------------------------------|
|------------------------------------------|  Lead needs to use distortion on this last solo
|--18-18--13-13--10-10-9-10-10-10-10-9-10--|  to really nail a blues kind of riff.
|--17-17--13-13--10-10-9-10-10-10-10-9-10--|
|------------------------------------------|
|------------------------------------------|
|------------------------------------------|