The Classic Crime - Vagabonds Acoustic Chords

 
7 fr
         
         
         
         
1
3
4
2
1
1
         
         
         
         
X
2
1
X
3
         
         
         
         
X
1
4
4
4
X
         
         
         
         
X
1
3
3
3
1
4 fr
         
         
         
         
4
3
1
1
1
X
4 fr
         
         
         
         
3
2
1
1
1
4

9 fr
         
         
         
         
X
X
1
3
4
3
11 fr
         
         
         
         
X
4
3
1
2
1

Cm

variations
4 fr
         
         
         
         
X
1
3
4
2
1
9 fr
         
         
         
         
1
3
4
1
1
1
         
         
         
         
X
4
2
1
X
X
         
         
         
         
X
4
3
1
2
X
4 fr
         
         
         
         
X
1
X
X
2
1
11 fr
         
         
         
         
X
X
1
3
4
2

4 fr
         
         
         
         
X
X
         
         
         
         
2
3
1
4 fr
         
         
         
         
X
4
3
1
2
1
7 fr
         
         
         
         
X
1
4
4
4
X
2 fr
         
         
         
         
X
X
1
2
4
3
4 fr
         
         
         
         
4
3
1
2
1
7 fr
         
         
         
         
X
1
3
3
3
1

9 fr
         
         
         
         
4
3
1
1
1
X
9 fr
         
         
         
         
3
2
1
1
1
4
12 fr
         
         
         
         
1
3
4
2
1
1
4 fr
         
         
         
         
X
         
         
         
         
X
1
2
3
5 fr
         
         
         
         
1
3
4
2
1
1
2 fr
         
         
         
         
X
1
1
1
4
         
         
         
         
X
X
1
2
2 fr
         
         
         
         
3
2
1
1
1
4
7 fr
         
         
         
         
X
X
1
3
4
3

9 fr
         
         
         
         
X
4
3
1
2
1
12 fr
         
         
         
         
X
1
3
3
3
1
No chord
Standard guitar tuning:
E
A
D
G
B
E
No capo

Intro rift

x2

Verse 1

I cant get enough/of living in the city/I get off the bus/at Dexter and Denny/ the suns coming up/ over the lake to my east/ and I feel the love/ in the rhythm of music of the street air. -Pre Chorus 1- BAnd no one is gonnaCm take that away from Eme So I Bpick up a real changeCm paper as I Ewalk on down the street EYeah becauBse

Chorus

CmVagabonds and Etroubadours/ABuilt this city on Bpunk rock chords/ Cmand I for one cEannot ignore theA facts, yBeahahahha CmSo we will make mEusic till no oAne rBefuses/Cmwe will take our Eairwaves baAck, Byeahah, comon

Intro rift

Verse 2

In the jet city of love/ northwest in the evergreen state/people cant get enough/ of living in the darkness and the rain/ but when the sun comes out/the streets are filled with songs/ and people playing it loud/ so the whole world can sing along/ yeah -Pre Chorus 2- BAnd the cops go screaminCm by on the 9E9 Theres a Bman with a smile and his Cmguitar on and hes Eholdin a sign Eand it sBays

Chorus

Intro rift

Solo

eb|-------------------------------------------------------|
Bb|-12-10h12-9h10-7h9-5h7-7p5p0-0--x4---------------------|
Gb|-------------------------------------------------------|
eb|-12-11h12-9h11-7h9p0--12-11h12-9h11-7h9-5h7-4h5p4p0-0--|
Bb|-------------------------------------------------------|
Gb|-------------------------------------------------------|
eb|-12-11h12-9h11-7h9-5h7-4h5-5p4-5p4-5p4-----------------|
Bb|---------------------------------------5/7-7\5-0-------|
Gb|-------------------------------------------------------|
-LastChorus- + We will make music till no one refuses -we will take our air waves back yeahah comon-

Outro

is intro rift x2
and there you go, please comment and rate!
Db-----------------------------------------------|
Ab---------11-------11---------------11----------|
Eb-0-11h12----12-11----12----0-11h12----12-11-12-|

Verse rift

Db---------11-------11-------------------------------|
Ab---11h12----12-11----12------------11--------------|
Eb-0-------------------------0-11h12----12-11-12-----|
The verse is Intro Rift X1 then the Verse Rift X1 Between each not relax your fingers to mute the strings Chords
     E        B       A              Cm           B
eb|--x--------x-------x---------------x------------x-|
Bb|--x--------x-------x--------------(5) optional--x-|
Gb|--9--------8-------6---------------6------------4-|
Db|--9--------9-------7---------------6------------4-|
Ab|--7--------9-------7---------------4------------2-|
Eb|--x--------7-------5---------------x------------x-|