Clueso - Viel Gesehn Chords

 
No chord
    
Standard guitar tuning:
E
A
D
G
B
E
No capo
E---4-------------|---2-------------|
B---4-------------|---2-------------|
G---4--5----------|---2--3----------|
D---4-----6-------|---2-----4-------|
A---4-----6-------|---2-----4-------|
E---4-------------|---2-------------|

Chorus

E---9-------------|---4-------------|---6-------------|---8-------------|
B---9-------------|---4-------------|---6-------------|---8-------------|
G---9--10---------|---4--5----------|---6-------------|---8--9----------|
D---9-----11------|---4-----6-------|---6--8----------|---8----10-------|
A---9-----11------|---4-----6-------|---6--8----------|---8----10-------|
E---9-------------|---4-------------|---6-------------|---8-------------|
E---9-------------|---4-------------|---6-------------|
B---9-------------|---4-------------|---6-------------|
G---9--10---------|---4--5----------|---6--7----------|
D---9-----11------|---4-----6-------|---6-----8-------|
A---9-----11------|---4-----6-------|---6-----8-------|
E---9-------------|---4-------------|---6-------------|