Cold - Bleed Chords

Main Riff
Main Riff
 
No chord
Standard guitar tuning:
E
A
D
G
B
E
No capo
Part 1
G|------------------------------
D|------------------------------
A|---3-----1-----0--------------
E|----------------------4----6--
Part 2
G|-------------------
D|-----------6----5--
A|---6----5----------
E|-------------------
Song Structure Part 1 x6 Part 2 x2 Part 1 x6 Part 2 x10, at 10th, stop on 1st note If you think this is wrong, you love me, you hate me, or whatever, email me.