Cold - No One Acoustic Chords

 
No chord
Standard guitar tuning:
E
A
D
G
B
E
No capo
G)----------------------------------------------------------------------------------------------------
D)----5---5---5---5---5---5---6---6---6---6---6---6---6---6---6---6---5---5---5---5---5---5
A)----------------------------------------------------4---4---4---4---4---3---3---3---3---3
D)----3---3---3---3---3---3---3---3---3---3---3---3---3---3---3---3---3---3---3---3---3---3
That?s the main riff, you play it in all the verses and between chorus leading to verse.

Chorus

D)---8---8---8---8---8---8---8---8---8---6---6---6---6---6---5---5---5---5---5---5---5
A)---8---8---8---8---8---8---8---8---8---6---6---6---6---6---5---5---5---5---5---5---5
D)---8---8---8---8---8---8---8---8---8---6---6---6---6---6---5---5---5---5---5---5---5
MAIN RIFF TO VERSE

Bridge

G)---------------------------------------------------------------5---5---5---5---3---3---3---3
D)---3---3---3---3---3---5---5---5---5---5---3---3---3---3---3---6---6---6---6---5---5---5---5
A)---3---3---3---3---3---3---3---3---3---3---3---3---3---3---3---3---3---3---3---3---3---3---3
D)---3---3---3---3---3---3---3---3---3---3---3---3---3---3---3---3---3---3---3---3---3---3---3
Repeat a lot during the ?So sick of this terrible instinct?? Then back to modified chorus like so? D)-10-?10-?10--10--10-?10--10--10-?10---8---8---8---8---8---6---6---6---6---6---6---6
A---8---8---8---8---8---8---8---8---8---6---6---6---6---6---5---5---5---5---5---5---5
D---8---8---8---8---8---8---8---8---8---6---6---6---6---6---5---5---5---5---5---5---5
Then finish with a modified verse as follows?
D)---5---5---5---5---6---6---3
A)----------------------------
D)---3---3---3---3---3---3---3
And let it ring. If you can figure out the timing for yourself or have herd the acoustic version here?s how to completely play it.