Coldplay - For You Chords

Main Riff
 

Bsus4

variations
         
         
         
         
X
1
3
4
2 fr
         
         
         
         
X
1
3
3
4
1
7 fr
         
         
         
         
1
3
3
3
1
1
9 fr
         
         
         
         
X
X
1
3
4
4
11 fr
         
         
         
         
X
3
4
1
2
X
7 fr
         
         
         
         
X
X

Aadd9

variations
         
         
         
         
X
1
4
2
5 fr
         
         
         
         
X
X
3
2
1
4
9 fr
         
         
         
         
X
3
2
1
4
1
9 fr
         
         
         
         
X
4
1
1
2
1
9 fr
         
         
         
         
X
3
1
1
4
1
6 fr
         
         
         
         
X
No chord
Standard guitar tuning:
E
A
D
G
B
E
No capo
e|Bsus4 0 Cmin7 0 Aadd9 0 b| 0 0 0 Note: It's piano so I've tabbed into guitar. Play it slowly with the song then you might get it.

Intro

e|------------------------------------------------
b|-4--2-4-5--5-2-4-5-4--2-0-2--0-2-4--2-4-5--7-0--
G|------------------------------------------------
D|------------------------------------------------
A|------------------------------------------------
E|------------------------------------------------

Verse 1

Bsus4If you're lost and feeling Cmin7low, Bsus4Circumnavigate the Cmin7globe, Bsus4All you have is Cmin7hope, For Bsus4you,

Verse 2

Bsus4And the way you seem to Cmin7flow, Bsus4Circumnavigate the Cmin7globe, Bsus4I never seem to lose conCmin7trol, With Bsus4you, Note: The first 2 line of tabs below is electric guitar. The 3rd line is piano.

Instrumental

e|-7-6-7-6-7-6-7-6-5-4-5p7-4-|-7-6-7-6-7-6-7-6-5-4-5p7-4-|
b|---------------------------|---------------------------|
G|---------------------------|---------------------------|
D|---------------------------|---------------------------|
A|---------------------------|---------------------------|
E|---------------------------|---------------------------|
e|-7-6-7-6-7-6-7-6-5-4-5p7-4-|-7-6-7-6-7-6-7-6-5-4-5p7-4-|
b|---------------------------|---------------------------|
G|---------------------------|---------------------------|
D|---------------------------|---------------------------|
A|---------------------------|---------------------------|
E|---------------------------|---------------------------|
e|------------------------------------------------
b|-4--2-4-5--5-2-4-5-4--2-0-2--0-2-4--2-4-5--7-0--
G|------------------------------------------------
D|------------------------------------------------
A|------------------------------------------------
E|------------------------------------------------

Verse 3

Bsus4Everyone of us is Cmin7high, Bsus4Everyone of us is Cmin7low, Bsus4Everyone of us is Cmin7here, How about Bsus4you?

Chorus

Bsus4Your Aadd9eyes are Cmin7closed,Bsus4 Bsus4Your Aadd9head held Cmin7low, Bsus4 Bsus4Your Aadd9eyes are Cmin7closed,Bsus4

Instrumental

e|-7-6-7-6-7-6-7-6-5-4-5p7-4-|-7-6-7-6-7-6-7-6-5-4-5p7-4-|
b|---------------------------|---------------------------|
G|---------------------------|---------------------------|
D|---------------------------|---------------------------|
A|---------------------------|---------------------------|
E|---------------------------|---------------------------|
e|-7-6-7-6-7-6-7-6-5-4-5p7-4-|-7-6-7-6-7-6-7-6-5-4-5p7-4-|
b|---------------------------|---------------------------|
G|---------------------------|---------------------------|
D|---------------------------|---------------------------|
A|---------------------------|---------------------------|
E|---------------------------|---------------------------|

Verse 4

Bsus4Everyone of us is Cmin7high, Bsus4Everyone of us is Cmin7low, Bsus4Everyone of us has Cmin7hope, For Bsus4you, Cmin7 For Bsus4you, Cmin7 For Bsus4you, Cmin7 For Bsus4you, Cmin7 For Bsus4you, Cmin7 For Bsus4you, Cmin7 For Bsus4you, Cmin7 For Bsus4you, Cmin7 For Bsus4you, Cmin7 For Bsus4you, Cmin7