Coldplay - Parachutes Chords

Intro Riff
 
         
         
         
         
X
2
3
1
5 fr
         
         
         
         
1
3
4
1
1
1
5 fr
         
         
         
         
X
X
1
1
1
8 fr
         
         
         
         
X
3
2
4
1
2 fr
         
         
         
         
X
1
4
4
4
7 fr
         
         
         
         
X
1
3
4
2

9 fr
         
         
         
         
X
4
3
1
2
X
12 fr
         
         
         
         
X
1
3
4
2
1
5 fr
         
         
         
         
X
         
         
         
         
X
3
2
1
3 fr
         
         
         
         
X
1
2
3
4
1
8 fr
         
         
         
         
1
3
4
2
1
1
3 fr
         
         
         
         
X
1
X
3
4
1
5 fr
         
         
         
         
3
2
1
1
1
4
10 fr
         
         
         
         
X
X
1
3
4
3

12 fr
         
         
         
         
X
4
3
1
2
1
3 fr
         
         
         
         
X
         
         
         
         
1
3
4
2
1
1
5 fr
         
         
         
         
X
4
3
1
2
1
3 fr
         
         
         
         
X
X
1
2
4
3
         
         
         
         
X
X
3
2
1
1
8 fr
         
         
         
         
X
1
3
3
3
1
10 fr
         
         
         
         
4
3
1
1
1
X

10 fr
         
         
         
         
3
2
1
1
1
4
         
         
         
         
X
X
2
3
1
5 fr
         
         
         
         
X
1
3
4
2
1
10 fr
         
         
         
         
X
X
1
1
1
5 fr
         
         
         
         
X
X
3
2
1
2 fr
         
         
         
         
X
4
3
1
2
X
10 fr
         
         
         
         
1
3
4
1
1
1

12 fr
         
         
         
         
X
X
1
3
4
2
         
         
         
         
2
3
3 fr
         
         
         
         
X
X
2
4
1
7 fr
         
         
         
         
X
1
3
4
2
1
2 fr
         
         
         
         
X
X
1
3
4
2
3 fr
         
         
         
         
X
3
2
4
1
4 fr
         
         
         
         
X
4
3
1
2
X

12 fr
         
         
         
         
1
3
4
1
1
1
         
         
         
         
2
3
1
4 fr
         
         
         
         
X
4
3
1
2
1
7 fr
         
         
         
         
X
1
4
4
4
X
2 fr
         
         
         
         
X
X
1
2
4
3
4 fr
         
         
         
         
4
3
1
2
1
7 fr
         
         
         
         
X
1
3
3
3
1

9 fr
         
         
         
         
4
3
1
1
1
X
9 fr
         
         
         
         
3
2
1
1
1
4
12 fr
         
         
         
         
1
3
4
2
1
1
4 fr
         
         
         
         
X
7 fr
         
         
         
         
1
3
4
2
1
1
         
         
         
         
X
2
1
X
3
         
         
         
         
X
1
4
4
4
X
         
         
         
         
X
1
3
3
3
1
4 fr
         
         
         
         
4
3
1
1
1
X
4 fr
         
         
         
         
3
2
1
1
1
4

9 fr
         
         
         
         
X
X
1
3
4
3
11 fr
         
         
         
         
X
4
3
1
2
1

Cm

variations
4 fr
         
         
         
         
X
1
3
4
2
1
9 fr
         
         
         
         
1
3
4
1
1
1
         
         
         
         
X
4
2
1
X
X
         
         
         
         
X
4
3
1
2
X
4 fr
         
         
         
         
X
1
X
X
2
1
11 fr
         
         
         
         
X
X
1
3
4
2

4 fr
         
         
         
         
X
X

F

variations
         
         
         
         
1
3
4
2
1
1
         
         
         
         
X
X
3
2
1
1
6 fr
         
         
         
         
X
4
3
1
2
1
4 fr
         
         
         
         
X
X
1
2
4
3
9 fr
         
         
         
         
X
1
3
3
3
1
11 fr
         
         
         
         
4
3
1
1
1
X

11 fr
         
         
         
         
3
2
1
1
1
4

Am

variations
4 fr
         
         
         
         
1
3
4
1
1
1
6 fr
         
         
         
         
X
X
1
3
4
2
4 fr
         
         
         
         
X
X
3
1
1
1
         
         
         
         
4
2
1
X
X
X
8 fr
         
         
         
         
X
4
3
1
2
X
11 fr
         
         
         
         
X
1
3
4
2
1

E7

variations
         
         
         
         
X
X
1
3
2
4
6 fr
         
         
         
         
X
1
3
1
4
1
6 fr
         
         
         
         
X
1
X
1
3
1
11 fr
         
         
         
         
1
X
2
4
3
X
6 fr
         
         
         
         
X
1
3
3
3
4
8 fr
         
         
         
         
4
3
1
1
1
2

11 fr
         
         
         
         
1
3
1
2
X
1
11 fr
         
         
         
         
1
3
1
2
4
1
         
         
         
         
X
1
3
1
2
4 fr
         
         
         
         
2
1
3
1
4
X
5 fr
         
         
         
         
1
3
1
2
1
4

B/D

variations
4 fr
         
         
         
         
X
3
1
1
1
X
         
         
         
         
X
X
1
X
3
4 fr
         
         
         
         
X
3
1
1
1
4

C7

variations
4 fr
         
         
         
         
X
1
3
1
4
1
9 fr
         
         
         
         
1
3
1
2
1
1
4 fr
         
         
         
         
X
1
X
1
4
1
4 fr
         
         
         
         
X
1
3
3
3
4
6 fr
         
         
         
         
4
3
1
1
1
2
9 fr
         
         
         
         
1
3
1
2
X
1

9 fr
         
         
         
         
1
3
1
2
4
1
11 fr
         
         
         
         
X
X
1
3
2
4
         
         
         
         
X

Cm7

variations
4 fr
         
         
         
         
X
1
3
1
2
1
9 fr
         
         
         
         
1
3
1
1
1
1
4 fr
         
         
         
         
X
1
X
2
4
3
         
         
         
         
X
2
1
3
1
4
4 fr
         
         
         
         
X
1
3
1
2
4
         
         
         
         
X
4
2
1

9 fr
         
         
         
         
1
3
1
1
4
1
11 fr
         
         
         
         
X
X
1
3
2
2

Fm

variations
         
         
         
         
1
3
4
1
1
1
4 fr
         
         
         
         
X
X
1
3
4
2
         
         
         
         
X
X
3
1
1
1
9 fr
         
         
         
         
X
1
3
4
2
1
6 fr
         
         
         
         
X
4
3
1
2
X
         
         
         
         
2
3
1
4
6 fr
         
         
         
         
X
2
1
1
4
3
7 fr
         
         
         
         
X
1
3
3
3
3
9 fr
         
         
         
         
4
3
1
1
1
1
         
         
         
         
X
1
2
3
5 fr
         
         
         
         
1
3
4
2
1
1
2 fr
         
         
         
         
X
1
1
1
4
         
         
         
         
X
X
1
2
2 fr
         
         
         
         
3
2
1
1
1
4
7 fr
         
         
         
         
X
X
1
3
4
3

9 fr
         
         
         
         
X
4
3
1
2
1
12 fr
         
         
         
         
X
1
3
3
3
1

Badd9

variations
7 fr
         
         
         
         
X
X
3
2
1
4
11 fr
         
         
         
         
X
4
1
1
2
1
11 fr
         
         
         
         
X
3
1
1
4
1
11 fr
         
         
         
         
X
3
2
1
4
1

B/A

         
         
         
         
X

Dm7(5)

variations
         
         
         
         
X
X
1
3
3
3
4 fr
         
         
         
         
X
3
1
4
1
2
6 fr
         
         
         
         
X
1
3
2
4
X
11 fr
         
         
         
         
1
2
1
1
4
1

Gsus4

variations
4 fr
         
         
         
         
1
3
3
3
1
1
6 fr
         
         
         
         
X
X
1
3
4
4
8 fr
         
         
         
         
X
3
4
1
2
X
11 fr
         
         
         
         
X
1
3
3
4
1

Bm7

variations
         
         
         
         
X
1
3
1
2
1
6 fr
         
         
         
         
1
3
1
1
1
1
         
         
         
         
X
1
X
2
4
3
         
         
         
         
X
1
3
1
2
4
6 fr
         
         
         
         
1
X
1
1
1
X
6 fr
         
         
         
         
1
3
1
1
4
1

8 fr
         
         
         
         
X
X
1
3
2
2
11 fr
         
         
         
         
X
2
1
3
1
4

C7M

variations
4 fr
         
         
         
         
X
1
X
3
4
2
         
         
         
         
X
4
3
1
1
1
4 fr
         
         
         
         
X
1
3
2
4
X
4 fr
         
         
         
         
X
1
3
2
4
1
8 fr
         
         
         
         
X
X
4
3
2
1
9 fr
         
         
         
         
1
4
2
3
1
1

11 fr
         
         
         
         
X
X
1
3
3
3

Bm

variations
         
         
         
         
X
1
3
4
2
1
6 fr
         
         
         
         
1
3
4
1
1
1
         
         
         
         
X
1
3
4
2
X
6 fr
         
         
         
         
X
X
3
1
1
1
8 fr
         
         
         
         
X
X
1
3
4
2
10 fr
         
         
         
         
X
4
3
1
2
X

C

variations
4 fr
         
         
         
         
X
1
2
3
4
1
         
         
         
         
X
4
3
1
2
1
4 fr
         
         
         
         
X
1
4
4
4
X
6 fr
         
         
         
         
4
3
1
1
1
X
6 fr
         
         
         
         
3
2
1
1
1
4
9 fr
         
         
         
         
1
3
4
2
1
1

11 fr
         
         
         
         
X
X
1
3
4
3

C9

variations
8 fr
         
         
         
         
2
1
3
1
4
X
9 fr
         
         
         
         
1
3
1
2
1
4

Gdim

variations
3 fr
         
         
         
         
1
3
4
2
X
X
5 fr
         
         
         
         
X
X
1
2
4
3
10 fr
         
         
         
         
X
1
2
4
3
X

F7M

variations
4 fr
         
         
         
         
X
X
1
4
4
4
         
         
         
         
1
X
3
4
2
X
         
         
         
         
X
X
4
3
2
1
6 fr
         
         
         
         
X
4
3
1
1
1
         
         
         
         
1
4
2
3
1
1
9 fr
         
         
         
         
X
1
3
2
4
1
3 fr
         
         
         
         
1
4
2
3
1
1
5 fr
         
         
         
         
X
X
1
4
4
4
         
         
         
         
2
X
4
3
1
         
         
         
         
3
2
1
         
         
         
         
1
X
3
4
2
X
2 fr
         
         
         
         
X
X
4
3
2
1

7 fr
         
         
         
         
X
4
3
1
1
1

F6

9 fr
         
         
         
         
X
1
3
3
3
3
         
         
         
         
X
X
1
4
4
4
         
         
         
         
1
1
4
4
4
7 fr
         
         
         
         
X
1
3
2
4
1
         
         
         
         
3
1
2
         
         
         
         
2
3
1
4
4 fr
         
         
         
         
X
4
3
1
1
1

11 fr
         
         
         
         
X
X
4
3
2
1
12 fr
         
         
         
         
1
4
2
3
1
1
4 fr
         
         
         
         
X
         
         
         
         
3
2
4
3 fr
         
         
         
         
1
3
4
2
1
1
         
         
         
         
2
1
3
4
3 fr
         
         
         
         
X
X
3
2
1
1
5 fr
         
         
         
         
X
X
1
3
4
3
7 fr
         
         
         
         
X
4
3
1
2
1

10 fr
         
         
         
         
X
1
2
3
4
X
10 fr
         
         
         
         
X
1
3
3
3
1
12 fr
         
         
         
         
3
2
1
1
1
4

E

variations
3 fr
         
         
         
         
X
4
3
1
2
1
6 fr
         
         
         
         
X
1
2
3
4
1
         
         
         
         
X
X
1
2
4
3
3 fr
         
         
         
         
X
4
3
1
2
X
8 fr
         
         
         
         
4
3
1
1
1
X
8 fr
         
         
         
         
3
2
1
1
1
4

11 fr
         
         
         
         
1
3
4
2
1
1
         
         
         
         
X
X
1
3
2
2 fr
         
         
         
         
X
4
3
1
2
1
5 fr
         
         
         
         
X
1
2
3
4
1
5 fr
         
         
         
         
X
1
4
4
4
X
7 fr
         
         
         
         
4
3
1
1
1
X
7 fr
         
         
         
         
3
2
1
1
1
4

10 fr
         
         
         
         
1
3
4
2
1
1
12 fr
         
         
         
         
X
X
1
3
4
3
5 fr
         
         
         
         
X
X
         
         
         
         
X
1
3
4
2
1
7 fr
         
         
         
         
1
3
4
1
1
1
         
         
         
         
X
1
3
4
2
X
7 fr
         
         
         
         
X
X
3
1
1
1
9 fr
         
         
         
         
X
X
1
3
4
2
11 fr
         
         
         
         
X
4
3
1
2
X

B6

variations
         
         
         
         
X
1
3
3
3
3
8 fr
         
         
         
         
X
X
1
3
1
4

E7M

variations
         
         
         
         
X
X
1
4
4
4
6 fr
         
         
         
         
X
1
3
2
4
1
6 fr
         
         
         
         
X
1
X
3
4
2
3 fr
         
         
         
         
X
4
3
1
1
1
10 fr
         
         
         
         
X
X
4
3
2
1
11 fr
         
         
         
         
1
4
2
3
1
1

Cadd9

variations
         
         
         
         
X
2
1
3
X
         
         
         
         
X
3
1
         
         
         
         
X
2
3
8 fr
         
         
         
         
X
X
3
2
1
4
         
         
         
         
X
         
         
         
         
X

Csus2

variations
         
         
         
         
X
2
3
4
         
         
         
         
X
3
1
4
3 fr
         
         
         
         
X
1
3
4
1
1
5 fr
         
         
         
         
4
1
1
1
X
X
7 fr
         
         
         
         
X
X
3
1
2
4
10 fr
         
         
         
         
X
X
1
3
4
1

Gsus2

variations
         
         
         
         
4
X
X
         
         
         
         
2
1
3
4
2 fr
         
         
         
         
X
X
3
1
2
4
5 fr
         
         
         
         
X
X
1
3
4
1
7 fr
         
         
         
         
X
3
1
1
2
4
7 fr
         
         
         
         
X
2
1
1
3
4

10 fr
         
         
         
         
X
1
3
4
1
1
12 fr
         
         
         
         
4
1
1
1
X
X
         
         
         
         

Gadd9

variations
         
         
         
         
2
1
3
         
         
         
         
2
3
3 fr
         
         
         
         
X
X
3
2
1
4
7 fr
         
         
         
         
X
3
2
1
4
1
7 fr
         
         
         
         
X
3
1
1
4
1
7 fr
         
         
         
         
X
4
1
1
2
1

         
         
         
         

Asus2

variations
         
         
         
         
X
2
3
2 fr
         
         
         
         
4
1
1
1
X
X
4 fr
         
         
         
         
X
X
3
1
2
4
7 fr
         
         
         
         
X
X
1
3
4
1
9 fr
         
         
         
         
X
2
1
1
3
4
9 fr
         
         
         
         
X
3
1
1
2
4

12 fr
         
         
         
         
X
1
3
4
1
1

Dsus2

variations
         
         
         
         
X
X
3
4
2 fr
         
         
         
         
X
3
1
1
2
4
2 fr
         
         
         
         
X
2
1
1
3
4
5 fr
         
         
         
         
X
1
3
4
1
1
7 fr
         
         
         
         
4
1
1
1
X
X
9 fr
         
         
         
         
X
X
3
1
2
4

D7M9

variations
2 fr
         
         
         
         
X
4
1
1
1
1
9 fr
         
         
         
         
2
1
4
1
3
1

Fm7

variations
         
         
         
         
1
3
1
1
1
1
9 fr
         
         
         
         
X
1
3
1
2
1
         
         
         
         
X
X
4
1
2
2 fr
         
         
         
         
1
3
1
1
4
1
4 fr
         
         
         
         
X
X
1
3
2
2
7 fr
         
         
         
         
X
2
1
3
1
4

9 fr
         
         
         
         
X
1
3
1
2
X
9 fr
         
         
         
         
X
1
3
1
2
4
         
         
         
         
X
         
         
         
         
X
1
3
1
2
1
7 fr
         
         
         
         
1
3
1
1
1
1
         
         
         
         
X
1
X
2
4
3
         
         
         
         
X
1
2
3
7 fr
         
         
         
         
1
X
1
1
1
X
2 fr
         
         
         
         
X
1
3
1
2
4

7 fr
         
         
         
         
1
3
1
1
4
1
9 fr
         
         
         
         
X
X
1
3
2
2
12 fr
         
         
         
         
X
2
1
3
1
4
         
         
         
         
X

Asus4

variations
         
         
         
         
X
1
2
4
2 fr
         
         
         
         
X
1
1
2
4
5 fr
         
         
         
         
1
3
3
3
1
1
7 fr
         
         
         
         
X
1
2
3
4
9 fr
         
         
         
         
X
3
4
1
2
X
12 fr
         
         
         
         
X
1
3
3
4
1

         
         
         
         
X
5 fr
         
         
         
         
X
         
         
         
         
2
3
1
4
         
         
         
         
2
1
         
         
         
         
X
X
1
3
2
4
7 fr
         
         
         
         
X
1
3
1
4
1
         
         
         
         
2
1
4
7 fr
         
         
         
         
X
1
3
3
3
4

9 fr
         
         
         
         
4
3
1
1
1
2
12 fr
         
         
         
         
1
3
1
2
4
1
         
         
         
         
X
X
1
2
X
5 fr
         
         
         
         
X
1
3
4
X
X
10 fr
         
         
         
         
1
3
4
X
X
X
No chord
E guitar tuning
No capo

Intro

F chord with hammer on's
E-1-1---1-1-0-h-1-1----1-1--------------------|
B-1-1---1-1-0-h-1-1----1-1--------------------|
G-2-0-h-2-2-2---2-0-h-2-2---------------------|
D-3-3---3-3-3---3-3----3-3--------------------|                 X2
A-3-3---3-3-3---3-3----3-3--------------------|
E-1-1---1-1-1---1-1---1-1---------------------|

Verse 1

Am C F (hammer like in intro) Bones sinking like stones all that we fought for Homes all that we've grown all of us are done for

Chorus

DmAnd we live in a beautifAmul world yeah we do yEmeah we do We live in a beautiful world

Verse 2

AmBones sinking like stones Call that we've fought for F Homes all that we've grown all of us are done for

Chorus

DmWe live in a beautiful woAmrld yeah we do yeah weEm do We live in a beautiful world Instrumental verse same chords as before:

Chorus

DmWe live in a beautiful woAmrld yeah we do yeah Emwe do We live in a beautiful world

Instrumental verse

Outro

AmOh all that I know there'Cs nothing here to run from F Cos yes everybody here's got somebody to lean on 2. Shiver

Intro

[B - F#m - A9 - G#m] x 3 A9 - G#m ESo I look in your direction, And you pay me no attention do yBou? EI know you don't listen to me, Cos you say you see straight through me, Don't Byou? But on andCm on, From the moment I wake, To the moment I sFleep, I'll be there by your side, Just you try and stopCm me, I'll be waiting in line, Just to see if you caBre OAmh, did you wE7ant me to chaAmnge? Well I'd chE7ange for goAmod, And I wanE7t you to knBow that you'lA9l always get yourAm way

E7 B/D - C7/9 - Cm7/9

And I wanted to say Don't you shBiver Fm A9 Am Don't you shiBver Fm A9 Am I'll sing it BlouFmd and cA9learAm And I'lA9l always be waiting forAm you So you kEnow how much I need you, But you never even see me do yoBu? And is this my final chance of getting yBou? But on anCmd on, From the moment I wake, To the moment FI sleep, I'll be there by your side, Just you try and stopCm me, I'll be waiting in line, Just to see if you cBare Did you waE7nt me to chaAmnge? Well I'd E7change for goAmod, And I wanE7t you to knB/Dow that you'A9ll always get yourAm way

E7 B/D - C7/9 - Cm7/9

And I wanted to say... Don't you shivBer Fm A9 Am Don't you shivBer, Fm A9 Am I'll sing iBt loFmud and A9clearAm Yeah I'll alA9ways be waiting for yAmou Yeah I'll A9always be waiting for Amyou Yeah I'll A9always be waiting for Amyou For you, I wiA9ll always be waiting And it'sB you that I Fmsee, But you A9don't see Amme And its Byou, that I Fmhear, So loA9ud and so cleAmar I sing it BloudFm and A9cleaAmr And I'A9ll always be waiting forAm you So I loEok in your direction, And you pay me no attention, And you kEnow how much I need you But you never even see me Chords: D#7: - 6 5 6 4 - B/D#: - 6 4 4 4 - C#7/9 : - 4 3 4 4 - C#m7/9: - 4 2 4 4 - CHORDS USED: Cm:9X0990 Fm:2X0220 E6:020120 A:5X0650 G#m11:4X0440 Badd9:7X0870 [B6/9]:7X0890 B/A:5X0860 F#m13:2X2200 G#m13:4X4400 D#m7b5:11.X.12.11.10.0 G#sus4:4X0540 G#add11:4X0540 F#:2X0320 Listen for timing, it's kind of complicated

Intro

Cm

Verse 1

FmI awake to find no peace of mindE6 I said "How do Ayou live as a fugA11itive?" Down Fmhere, where i cannot see so clearE6 I said "What do Ai know?" show me the right Gm11way to go

Chorus

FmAnd the spies came out of the wGm11ater And your Afeeling so bad 'cause you knowGm11 That the spiesFm hide out in every corE6ner But you cant touchA them no 'Cause Badd9they're all spies C#m11.... A.... [B6/9].. Badd9.. [B6/9].. Badd9.. they're just spies C#m11.... A.... [B6/9].. Badd9.. [B6/9].. Badd9..

Verse 2

FmI awake to see that no-one is freeE6 We're all Afugitive's Look at the Gm11way we live Down Fmhere, I cannot sleep from fearE6, no i said "Which Away do i turn?" Oh, I forget everGm11ything i learn

Chorus

FmAnd the spies came out of the wGm11ater And your Afeeling so bad 'cause you knowGm11 That the spiesFm hide out in every corE6ner But you cant touchA them no 'Cause Badd9they're all spies C#m11.... A.... [B6/9].. Badd9.. [B6/9].. Badd9.. they're just spies C#m11.... A.... [B6/9].. Badd9.. [B6/9].. Badd9..

Bridge

B/A And if we Adon't hideE6 heBre they're gonnaBadd9 find us Fm11 And if we Gm13don't hide Fm11now they're gonna Badd9catch us where we sleep B/A And if we Adon't hideE6 heBre they're gonnaBadd9 find us

Dm7(5) Gsus4 Gadd11

C#m11.... A.... [B6/9].. Badd9.. [B6/9].. Badd9.. (x2)

Outro

SpiesA came out of the Gadd11water And your feeB/Aling so good 'cause you knowF That those Fmspies hide out in every coE6rner And they can't touchA you no 'Cause Badd9they're just spies C#m11.... A.... [B6/9].. Badd9.. [B6/9].. Badd9.. they're just spies LAST CHORD: C#m13 Chords= Bm7=022000 C7M=x54000 Bm(maj9)=x64000 Bm7=x75000 Bm7/C=x75000 Ebmadd9=577500 C9=x87000 C=355400 Gdim=x42000 F7M=x23000 Intro In this order = Bm7, Bm(maj9, Bm7/C,

Gdim G7M

Verse chords=C7M,Bm7, Ebmadd9, C Chorus same as intro. Verse= Did I drive you away

C7M Bm7

I know what you say

C7M Bm7

You say ohhhh

Emadd9

Sing one you know

C7M C

Chorus= singing oooooooooooooooooooooooooooooooooooooooooooooooo

Bm7 Bm Bm7 C

G7M

Outro= Well I saw sparks

C7M Bm7

Repeat until end, finish on Dbmaj7 5. Yellow

B 7 9 0 8 0 0 Badd11 7 9 0 9 0 0 F6 2 4 4 3 2 0 E7M 0 2 0 1 0 0

4 x Am4 4 0 0 2 xFm11 2 2 0 1

Gtr I (E A B G B E) - 'Acoustic' Gtr II (E A B G B E) - 'Electric Rhythm' Gtr III (E A D G B E) - 'Electric Lead' Gtr IV (E A B G B D#) - 'Electric [spread chords in verse/top part in chorus]' Intro Q=87

4B/4 Badd11

Gtr I
  E E E E E E E S S
E E E E E E S S
|-0---0-0-0---0-0-0-|-0---0-0---0-0-0-0-|
|-0-0-0-0-0---0-0-0-|-0---0-0---0-0-0-0-|
|-8-8-8-8-8---8-8-8-|-8---8-9---9-9-9-9-|
|-0---0-0-0-0-0-0-0-|-0-0-0-0-0-0-0-0-0-|
|-9---9-9-9-9-9-9-9-|-9-9-9-9-9-9-9-9-9-|
|-7---7-7-7-7-7-7-7-|-7-7-7-7-7-7-7-7-7-|

B Badd11

  E E E E  E  E E S S
 E E E E E  E  S S
|-0---0-0--0----0-0-0-|-0----0-0---0--0--0-0-|
|-0-0-0-0--0----0-0-0-|-0----0-0---0--0--0-0-|
|-8-8-8-8--8----8-8-8-|-8----8-9---9--9--9-9-|
|-0---0-0--0--0-0-0-0-|-0--0-0-0-0-0--0--0-0-|
|-9---9-9--9--9-9-9-9-|-9--9-9-9-9-9--9--9-9-|
|-7---7-7--7--7-7-7-7-|-7--7-7-7-7-7--7--7-7-|
| Gtr II
| Q   E E +E  E E S S   B.
 +E  S S
|-0-----0-(0)---0-0-0-|-0------------(0)-x-0-|
|-0-----0-(0)---0-0-0-|-0------------(0)-x-0-|
|-8-----8-(8)---8-8-8-|-8------------(8)-x-8-|
|-0---0-0-(0)-0-0-0-0-|-0------------(0)-x-0-|
|-9---9-9-(9)-9-9-9-9-|-9------------(9)-x-9-|
|-7---7-7-(7)-7-7-7-7-|-7------------(7)-x-7-|
Main Riff BGtr III
  E     E E E E E E
  E E E E E E E S  S
|-7-----7-7-7-7-7-7-7-|-7-7-7-7-7-7-7-7----|
|-0-----0-0-0-0-0-0-0-|-0-0-0-0-0-0-0-0----|
|-9b11==9-9-9-9-9-9-9-|-9r9-9-9-9-9-9-9s13-|
|---------------------|--------------------|
|---------------------|--------------------|
|---------------------|--------------------|
| Gtrs I, II

E E E E E E E E E E E E E E E E

|-0-----0-0-0-0-0-0-0-|-0-0-0-0-0-0-0-0----| |-0-----0-0-0-0-0-0-0-|-0-0-0-0-0-0-0-0----| |-8-----8-8-8-8-8-8-8-|-8-8-8-8-8-8-8-8----| |-0-----0-0-0-0-0-0-0-|-0-0-0-0-0-0-0-0----| |-9-----9-9-9-9-9-9-9-|-9-9-9-9-9-9-9-9----| |-7-----7-7-7-7-7-7-7-|-7-7-7-7-7-7-7-7----|
  F6

E E E E E E E E E E E E E E E E

|-11-----11-11-11-11-11-11-11-|--------------------------| |--0------0--0--0--0--0--0--0-|--0--0--0--0--0--0--0--0--|
|-13b15==13-13-13-13-13-13-13-|-13r13-13-13-13-13-13-13--|
|-----------------------------|--------------------------|
|-----------------------------|--------------------------|
|-----------------------------|--------------------------|
   E      E  E  E  E  E  E E    E  E  E  E  E  E  E E
|--0------0--0--0--0--0--0--0-|--0--0--0--0--0--0--0--0--|
|--2------2--2--2--2--2--2--2-|--2--2--2--2--2--2--2--2--|
|--3------3--3--3--3--3--3--3-|--3--3--3--3--3--3--3--3--|
|--4------4--4--4--4--4--4--4-|--4--4--4--4--4--4--4--4--|
|--4------4--4--4--4--4--4--4-|--4--4--4--4--4--4--4--4--|
|--2------2--2--2--2--2--2--2-|--2--2--2--2--2--2--2--2--|

E7M

  E    E E E E E E
  E E E E E E E S S
|-2----2-2-2-2-2-2-2-|-2-2-2-2-2-2-2-2---|
|-0----0-0-0-0-0-0-0-|-0-0-0-0-0-0-0-0---|
|-4b6==4-4-4-4-4-4-4-|-4r4-4-4-4-4-4-4s9-|
|--------------------|-------------------|
|--------------------|-------------------|
|--------------------|-------------------|
  E    E E E E E E E  E E E E E E E E
|-0----0-0-0-0-0-0-0-|-0-0-0-0-0-0-0-0---|
|-0----0-0-0-0-0-0-0-|-0-0-0-0-0-0-0-0---|
|-1----1-1-1-1-1-1-1-|-1-1-1-1-1-1-1-1---|
|-0----0-0-0-0-0-0-0-|-0-0-0-0-0-0-0-0---|
|-2----2-2-2-2-2-2-2-|-2-2-2-2-2-2-2-2---|
|-0----0-0-0-0-0-0-0-|-0-0-0-0-0-0-0-0---|
  B

E E E E E E E E E E E E E E E E

|-7-----7-7-7-7-7-7-7-|-7-7-7-7-7-7-7-7--| |-0-----0-0-0-0-0-0-0-|-0-0-0-0-0-0-0-0--|
|-9b11==9-9-9-9-9-9-9-|-9r9-9-9-9-9-9-9--|
|---------------------|------------------|
|---------------------|------------------|
|---------------------|------------------|
  E     E E E E E E E  E E E E E E E E
|-0-----0-0-0-0-0-0-0-|-0-0-0-0-0-0-0-0--|
|-0-----0-0-0-0-0-0-0-|-0-0-0-0-0-0-0-0--|
|-8-----8-8-8-8-8-8-8-|-8-8-8-8-8-8-8-8--|
|-0-----0-0-0-0-0-0-0-|-0-0-0-0-0-0-0-0--|
|-9-----9-9-9-9-9-9-9-|-9-9-9-9-9-9-9-9--|
|-7-----7-7-7-7-7-7-7-|-7-7-7-7-7-7-7-7--|
Verse 1
  BGtrs I, II                        F6
  Q  E E Q  E E   E E E EE E E E   Q  E E Q  EE   Q  E E E E E E
|-0--0---0--0-0-|-0---0-0-0---0-0-|-0--0---0--0---|-0--0---0---0---|
|-0--0---0--0-0-|-0---0-0-0---0-0-|-2--2---2--2---|-2--2---2---2---|
|-8--8---8--8-8-|-8-8-8-8-8---8-8-|-3--3---3--3-3-|-3--3---3---3-3-|
|-0--0-0-0--0-0-|-0-0-0-0-0-0-0-0-|-4--4-4-4--4-4-|-4--4-4-4-4-4-4-|
|-9--9-9-9--9-9-|-9-9-9-9-9-9-9-9-|-4--4-4-4--4---|-4--4-4-4-4-4-4-|
|-7--7-7-7--7-7-|-7-7-7-7-7-7-7-7-|-2--2-2-2--2---|-2--2-2-2-2-2-2-|
Verse 2 [on repeat] $
  E7M                          B
  Q  E E E E E E   E EE E E E E E    Q  E EQ  E E   E E E E E E E E
|----0---0---0---|-----0-------0---|--0--0---0--0-0-|-0---0-0-0---0-0-|
|----0---0---0---|-0---0---0---0---|--0--0---0--0-0-|-0---0-0-0---0-0-|
|-1--1-1-1---1-1-|-1---1-1-1-1-1-8-|--8--8---8--8-8-|-8-8-8-8-8---8-8-|
|-0--0-0-0-0-0-0-|-0-0-0-0-0-0-0-0-|--0--0-0-0--0-0-|-0-0-0-0-0-0-0-0-|
|-2--2-2-2-2-2-2-|-2-2-2-2-2-2-2-9-|--9--9-9-9--9-9-|-9-9-9-9-9-9-9-9-|
|-0--0-0-0-0-0-0-|-0-0-0-0-0-0-0-7-|--7--7-7-7--7-7-|-7-7-7-7-7-7-7-7-|
| Gtr IV
| W                W                  W               W
|----------------|-----------------|-^8-------------|-----------------|
|----------------|-----------------|-^7-------------|-----------------|
|----------------|-----------------|-^8-------------|-----------------|
|----------------|-----------------|----------------|-----------------|
|----------------|-----------------|----------------|-----------------|
|----------------|-----------------|----------------|-----------------|
  F6                               E7M                            B
   Q  E E Q  E E   Q  E E EE E E     Q  E E E E EE   E E E E E E E E
|--0--0---0--0---|-0--0---0---0---|------0---0---0---|-----0-------0---|
|--2--2---2--2---|-2--2---2---2---|------0---0---0---|-0---0---0---0---|
|--3--3---3--3-3-|-3--3---3---3-3-|---1--1-1-1---1-1-|-1---1-1-1-1-1-8-|
|--4--4-4-4--4-4-|-4--4-4-4-4-4-4-|---0--0-0-0-0-0-0-|-0-0-0-0-0-0-0-0-|
|--4--4-4-4--4---|-4--4-4-4-4-4-4-|---2--2-2-2-2-2-2-|-2-2-2-2-2-2-2-9-|
|--2--2-2-2--2---|-2--2-2-2-2-2-2-|---0--0-0-0-0-0-0-|-0-0-0-0-0-0-0-7-|
| W W W W |-^7-------------|----------------|-^12--------------|-----------------|
|-^4-------------|----------------|-^12--------------|-----------------|
|-^6-------------|----------------|-^13--------------|-----------------|
|----------------|----------------|------------------|-----------------|
|----------------|----------------|------------------|-----------------|
|----------------|----------------|------------------|-----------------|
                                        F6
   Q    E  E Q  E E   E E EE E E E E    Q    E  E Q  EE   Q  E E E E E E
|--0----0----0--0-0-|-0---0-0-0---0-0-|--0----0----0--0---|-0--0---0---0---|
|--0----0----0--0-0-|-0---0-0-0---0-0-|--2----2----2--2---|-2--2---2---2---|
|--8----8----8--8-8-|-8-8-8-8-8---8-8-|--3----3----3--3-3-|-3--3---3---3-3-|
|--0----0--0-0--0-0-|-0-0-0-0-0-0-0-0-|--4----4--4-4--4-4-|-4--4-4-4-4-4-4-|
|--9----9--9-9--9-9-|-9-9-9-9-9-9-9-9-|--4----4--4-4--4---|-4--4-4-4-4-4-4-|
|--7----7--7-7--7-7-|-7-7-7-7-7-7-7-7-|--2----2--2-2--2---|-2--2-2-2-2-2-2-|
| Q H. W Q H. W |-^8--^(8)----------|-----------------|-^7--^(7)----------|----------------|
|-^7--^(7)----------|-----------------|-^4--^(4)----------|----------------|
|-^8--^(8)----------|-----------------|-^6--^(6)----------|----------------|
|-------------------|-----------------|-------------------|----------------|
|-------------------|-----------------|-------------------|----------------|
|-------------------|-----------------|-------------------|----------------|
  E7M                                B                     Badd11  B
    Q     E  E E E E E   EE E E E E E E   E EE E E E E E   E E E E E E E E
|---------0----0---0---|-----0-------0---|-0-0-0-0-0-0-0-0-|-0-0-0-0-0-0-0-0-|
|---------0----0---0---|-0---0---0---0---|-0-0-0-0-0-0-0-0-|-0-0-0-0-0-0-0-0-|
|---1-----1--1-1---1-1-|-1---1-1-1-1-1-8-|-8-8-8-8-8-8-8-8-|-9-9-9-9-8-8-8-8-|
|---0-----0--0-0-0-0-0-|-0-0-0-0-0-0-0-0-|-0-0-0-0-0-0-0-0-|-0-0-0-0-0-0-0-0-|
|---2-----2--2-2-2-2-2-|-2-2-2-2-2-2-2-9-|-9-9-9-9-9-9-9-9-|-9-9-9-9-9-9-9-9-|
|---0-----0--0-0-0-0-0-|-0-0-0-0-0-0-0-7-|-7-7-7-7-7-7-7-7-|-7-7-7-7-7-7-7-7-|
| Q H. W W W |-^12--^(12)-----------|-----------------|-----------------|-----------------|
|-^12--^(12)-----------|-----------------|-----------------|-----------------|
|-^13--^(13)-----------|-----------------|-----------------|-----------------|
|----------------------|-----------------|-----------------|-----------------|
|----------------------|-----------------|-----------------|-----------------|
|----------------------|-----------------|-----------------|-----------------|
Chorus
    E7MGtr IV

E E E E E E E E

||--17-17-17-17-17--17-17-17-| ||o--------------------------| ||--16-16-16-16-16--16-16-16-| ||---------------------------| ||o--------------------------| ||---------------------------|
|   Gtr I

E E E E E E E E

||---0-----0--0-(0)-----0--0-| ||o--0-----0--0-(0)-----0--0-| ||---1--1--1--1-(1)--1--1--1-| ||---0--0--0--0-(0)--0--0--0-| ||o--2--2--2--2-(2)--2--2--2-| ||---0--0--0--0-(0)--0--0--0-|

Am F6 E7M

E E E E E E E S
S  3x  B      B           W
|-17-17-17-17-17-15-15-15S17--||-17----------------|------|
|----------------------------o||-------------------|------|
|-16-16-16-16-16-15-15-15S16--||-16----------------|------|
|-----------------------------||-------------------|------|
|----------------------------o||-------------------|------|
|-----------------------------||-------------------|------|
   E  E  E  E  E  E  E
    3x  Q  E E E E E S S   W
|--0-----0--0-----0--0--------||--0--0-0-----0-0-0-|-0----|
|--0-----0--0-----0--0-------o||--0--0-0-----0-0-0-|-0----|
|--4--4--4--4--3--3--3--3-----||--1--1-1-----1-1-1-|-1----|
|--4--4--4--4--4--4--4--4-----||--0--0-0-0-0-0-0-0-|-0----|
|--------------4--4--4--4----o||--2--2-2-2-2-2-2-2-|-2----|
|--4--4--4--4--2--2--2--2-----||--0--0-0-0-0-0-0-0-|-0----|
Main Riff BGtr III
  E     E E E E E E
  E E E E E E E S  S
|-7-----7-7-7-7-7-7-7-|-7-7-7-7-7-7-7-7----|
|-0-----0-0-0-0-0-0-0-|-0-0-0-0-0-0-0-0----|
|-9b11==9-9-9-9-9-9-9-|-9r9-9-9-9-9-9-9s13-|
|---------------------|--------------------|
|---------------------|--------------------|
|---------------------|--------------------|
| Gtrs I, II

E E E E E E E E E E E E E E E E

|-0-----0-0-0-0-0-0-0-|-0-0-0-0-0-0-0-0----| |-0-----0-0-0-0-0-0-0-|-0-0-0-0-0-0-0-0----| |-8-----8-8-8-8-8-8-8-|-8-8-8-8-8-8-8-8----| |-0-----0-0-0-0-0-0-0-|-0-0-0-0-0-0-0-0----| |-9-----9-9-9-9-9-9-9-|-9-9-9-9-9-9-9-9----| |-7-----7-7-7-7-7-7-7-|-7-7-7-7-7-7-7-7----|
  F6

E E E E E E E E E E E E E E E E

|-11-----11-11-11-11-11-11-11-|--------------------------| |--0------0--0--0--0--0--0--0-|--0--0--0--0--0--0--0--0--|
|-13b15==13-13-13-13-13-13-13-|-13r13-13-13-13-13-13-13--|
|-----------------------------|--------------------------|
|-----------------------------|--------------------------|
|-----------------------------|--------------------------|
   E      E  E  E  E  E  E E    E  E  E  E  E  E  E E
|--0------0--0--0--0--0--0--0-|--0--0--0--0--0--0--0--0--|
|--2------2--2--2--2--2--2--2-|--2--2--2--2--2--2--2--2--|
|--3------3--3--3--3--3--3--3-|--3--3--3--3--3--3--3--3--|
|--4------4--4--4--4--4--4--4-|--4--4--4--4--4--4--4--4--|
|--4------4--4--4--4--4--4--4-|--4--4--4--4--4--4--4--4--|
|--2------2--2--2--2--2--2--2-|--2--2--2--2--2--2--2--2--|

E7M

  E    E E E E E E
  E E E E E E E S S
|-2----2-2-2-2-2-2-2-|-2-2-2-2-2-2-2-2---|
|-0----0-0-0-0-0-0-0-|-0-0-0-0-0-0-0-0---|
|-4b6==4-4-4-4-4-4-4-|-4r4-4-4-4-4-4-4s9-|
|--------------------|-------------------|
|--------------------|-------------------|
|--------------------|-------------------|
  E    E E E E E E E  E E E E E E E E
|-0----0-0-0-0-0-0-0-|-0-0-0-0-0-0-0-0---|
|-0----0-0-0-0-0-0-0-|-0-0-0-0-0-0-0-0---|
|-1----1-1-1-1-1-1-1-|-1-1-1-1-1-1-1-1---|
|-0----0-0-0-0-0-0-0-|-0-0-0-0-0-0-0-0---|
|-2----2-2-2-2-2-2-2-|-2-2-2-2-2-2-2-2---|
|-0----0-0-0-0-0-0-0-|-0-0-0-0-0-0-0-0---|
D.S.
  B

E E E E E E E E E E E E E E E E

|-7-----7-7-7-7-7-7-7-|-7-7-7-7-7-7-7-7--| |-0-----0-0-0-0-0-0-0-|-0-0-0-0-0-0-0-0--|
|-9b11==9-9-9-9-9-9-9-|-9r9-9-9-9-9-9-9--|
|---------------------|------------------|
|---------------------|------------------|
|---------------------|------------------|
  E     E E E E E E E  E E E E E E E E
|-0-----0-0-0-0-0-0-0-|-0-0-0-0-0-0-0-0--|
|-0-----0-0-0-0-0-0-0-|-0-0-0-0-0-0-0-0--|
|-8-----8-8-8-8-8-8-8-|-8-8-8-8-8-8-8-8--|
|-0-----0-0-0-0-0-0-0-|-0-0-0-0-0-0-0-0--|
|-9-----9-9-9-9-9-9-9-|-9-9-9-9-9-9-9-9--|
|-7-----7-7-7-7-7-7-7-|-7-7-7-7-7-7-7-7--|
Middle

B F6

    E     E E E E E E E  E E E E E E E S  S

E E E E E E E E

||--7-----7-7-7-7-7-7-7-|-7-7-7-7-7-7-7-7----|-11-----11-11-11-11-11-11-11-| ||o-0-----0-0-0-0-0-0-0-|-0-0-0-0-0-0-0-0----|--0------0--0--0--0--0--0--0-|
||--9b11==9-9-9-9-9-9-9-|-9r9-9-9-9-9-9-9s13-|-13b15==13-13-13-13-13-13-13-|
||----------------------|--------------------|-----------------------------|
||o---------------------|--------------------|-----------------------------|
||----------------------|--------------------|-----------------------------|
    E     E E E E E E E  E E E E E E E E      E      E  E  E  E  E  E  E
||--0-----0-0-0-0-0-0-0-|-0-0-0-0-0-0-0-0----|--0------0--0--0--0--0--0--0-|
||o-0-----0-0-0-0-0-0-0-|-0-0-0-0-0-0-0-0----|--2------2--2--2--2--2--2--2-|
||--8-----8-8-8-8-8-8-8-|-8-8-8-8-8-8-8-8----|--3------3--3--3--3--3--3--3-|
||--0-----0-0-0-0-0-0-0-|-0-0-0-0-0-0-0-0----|--4------4--4--4--4--4--4--4-|
||o-9-----9-9-9-9-9-9-9-|-9-9-9-9-9-9-9-9----|--4------4--4--4--4--4--4--4-|
||--7-----7-7-7-7-7-7-7-|-7-7-7-7-7-7-7-7----|--2------2--2--2--2--2--2--2-|

E7M

E E E E E E E

  E    E E E E E E
  E E E E E E E S S
|-------------------------|-2----2-2-2-2-2-2-2-|-2-2-2-2-2-2-2-2-----||
|--0--0--0--0--0--0--0--0-|-0----0-0-0-0-0-0-0-|-0-0-0-0-0-0-0-0----o||
|-13r13-13-13-13-13-13-13-|-4b6==4-4-4-4-4-4-4-|-4r4-4-4-4-4-4-4s9---||
|-------------------------|--------------------|---------------------||
|-------------------------|--------------------|--------------------o||
|-------------------------|--------------------|---------------------||
   E  E  E  E  E  E  E  E  E    E E E E E E E  E E E E E E E E
|--0--0--0--0--0--0--0--0-|-0----0-0-0-0-0-0-0-|-0-0-0-0-0-0-0-0-----||
|--2--2--2--2--2--2--2--2-|-0----0-0-0-0-0-0-0-|-0-0-0-0-0-0-0-0----o||
|--3--3--3--3--3--3--3--3-|-1----1-1-1-1-1-1-1-|-1-1-1-1-1-1-1-1-----||
|--4--4--4--4--4--4--4--4-|-0----0-0-0-0-0-0-0-|-0-0-0-0-0-0-0-0-----||
|--4--4--4--4--4--4--4--4-|-2----2-2-2-2-2-2-2-|-2-2-2-2-2-2-2-2----o||
|--2--2--2--2--2--2--2--2-|-0----0-0-0-0-0-0-0-|-0-0-0-0-0-0-0-0-----||
Outro BGtr II Fm11
  >
  B       B            W                    W
|-0------------------|--------------------|---------------------|
|-7------------------|--------------------|---------------------|
|-8------------------|--------------------|---------------------|
|-0------------------|--------------------|---------------------|
|-9------------------|--------------------|---------------------|
|-7------------------|--------------------|---------------------|
| Gtr I | Q E E +E E E S S Q E
+E  E E S S   E E E E
 E E S S
|-0--0-0-(0)---0-0-0-|-0--0-0-(0)---0-0-0-|-1---1-1-(1)---1-1-1-|
|-0--0-0-(0)---0-0-0-|-0--0-0-(0)---0-0-0-|-0---0-0-(0)---0-0-0-|
|-8--8-8-(8)---8-8-8-|-8--8-8-(8)---8-8-8-|-2-2-2-2-(2)-2-2-2-2-|
|-0--0-0-(0)-0-0-0---|-0--0-0-(0)-0-0-0---|-2-2-2-2-(2)-2-2-2---|
|-9--9-9-(9)-9-9-9---|-9--9-9-(9)-9-9-9---|---------------------|
|-7--7-7-(7)-7-7-7---|-7--7-7-(7)-7-7-7---|-2---2-2-(2)-2-2-2---|
  Gtr I                E7M
  Q  E E +E  E E S S    W          W
|----1-1-(1)---1-0-0-|-^0--------|------*|
|----0-0-(0)---0-0-0-|-^0--------|------*|
|----2-2-(2)-2-2-0-0-|-^1--------|------*|
|-2--2-2-(2)-2-2-0-0-|-^0--------|------*|
|--------------------|-^2--------|------*|
|-2--2-2-(2)-2-2-----|-^0--------|------*|
Duration Legend W - whole; H - half; Q - quarter; E - 8th; S - 16th; T - 32nd; X - 64th; a - acciaccatura + - note tied to previous; . - note dotted; .. - note double dotted Uncapitalized letters represent notes that are staccato (1/2 duration) Irregular groupings are notated above the duration line Duration letters will always appear directly above the note/fret number it represents the duration for. Duration letters with no fret number below them represent rests. Multi- bar rests are notated in the form Wxn, where n is the number of bars to rest for. Low melody durations appear below the staff - natural harmonic [n] - artificial harmonic n(n) - tapped harmonic ~ - vibrato tr - trill T - tap TP - trem. picking PM - palm muting \n/ - tremolo bar dip; n = amount to dip \n - tremolo bar down n/ - tremolo bar up /n\ - tremolo bar inverted dip = - hold bend; also acts as connecting device for hammers/pulls <> - volume swell (louder/softer) x - on rhythm slash represents muted slash o - on rhythm slash represents single note slash Misc Legend | - bar || - double bar ||o - repeat start o|| - repeat end *| - double bar (ending) : - bar (freetime) $ - Segno & - Coda Tempo markers - <e .=""> = BPM(8/16=s8/s16), where s8 = swing 8ths, s16 = swing 16ths 6. Trouble ohG no iEm see Bm a Fspider web is tangAmled up with me G anGd I lostEm my head Bm anFd thought of all the stupAmid things i’d said G ohG no wEmhat’s this Bm a Fspider web and i’m caugAmht in the middle G soG I turnEmed to run anBmd thFought of all the stupAmid things i’d done G anAd ah i never meant to cause you trouEmble ahA i never meant to do you wronEmg ahA well if I ever caused you trouEmble thAen oh no I never meant to do you harmEm. ohG no iEm see Bm a Fspider web and it’s me iAmn the middle G soG i twisEmt and turn Bm buFt here am i in my lAmittle bubble G siAnging out ah i never meant to cause you trouEmble ahA i never meant to do you wronEmg anAd ah well if I ever caused you trouEmble thAen oh no I never meant to do you harmEm. anEmd they spunFm a web foGr me Fm Em thEmey spunFm a web foGr me Fm Em anEmd they spunFm a web foGr me. Fm Em 7. Parachutes Intro & Verse:

B Am B Am Fm E

  B         Am           B         Am           Fm
E|-|-------------------|-------------------|------------------|-|
B|-|-------------------|-------------------|------------------|-|
G|-|----8--8----4--4---|----8--8----4--4---|---2---2---2---2--|-|
D|-|-----9--9----6--6--|-----9--9----6--6--|----4-------4-----|-|
A|-|------9-------6----|------9-------6----|-----4-------4----|-|
e|-|--7-------4--------|--7-------4--------|--2-------2-------|-|
  E
E|-|------------------|-|
B|-|------------------|-|
G|-|---1--1----1---1--|-|
D|-|----2--2----2-----|-|
A|-|-----2-------2----|-|
e|-|--0-------0-------|-|

Verse

YeBah my head is a storAmmy haze BI'll be round; I'll be lovingAm you always, alFmways E HeBre I am and I take Ammy time BHere I am and I'll Amwait in line always, alFmways E Chords:
  B      Am     Fm      E
E|-|--7--|--4--|--2--|--0--|-|
B|-|--7--|--4--|--2--|--0--|-|
G|-|--8--|--4--|--2--|--1--|-|
D|-|--9--|--6--|--4--|--2--|-|
A|-|--9--|--6--|--4--|--2--|-|
e|-|--7--|--4--|--2--|--0--|-|
8. High Speed GUITAR 1 (Rhythm) - DGDGBD (Open G) GUITAR 2 (Lead) - EADGBE (Standard) CHORDS: For rhythm guitar

B6

E = 133o1o | Csus2/F = 355o3o | x = string not played Gsus2 = xo77oo | o = open string E7M = x87o8o | E7M* = x88o8o | E7M** = x88o6o | B6 = x33o3o | Cadd9 = x55o5o |

Intro

Chords for GUITAR 1 written above. The lead is played by GUITAR 2 in standard

B6

E

Csus2

F

  Csus2

F

|------6-6-5-5-3-3-----8-8-6-6-5-5--|------6-6-5-5-3-3-----8-8-6-6-5-5--| |-----------------------------------|-----------------------------------| |--3-3-------------5-5--------------|--3-3-------------5-5--------------| |-----------------------------------|-----------------------------------| |-----------------------------------|-----------------------------------| |-----------------------------------|-----------------------------------|

B6

E

Csus2

F

  Csus2

F

|------6-6-5-5-3-3-----8-8-6-6-5-5--|------6-6-5-5-3-3-----8-8-6-6-5-5--8---| |-----------------------------------|-----------------------------------8---| |--3-3-------------5-5--------------|--3-3-------------5-5--------------5---| |-----------------------------------|---------------------------------------| |-----------------------------------|---------------------------------------| |-----------------------------------|---------------------------------------|
  Gsus2
 |--------------------------------------------|
 |------6---63---31---1-----------------------|
 |----7---7-----4-----2---0-----------0-0-----|
 |-------------------------------0--2---------| x2
 |---------------------------0h2--------------|
 |--------------------------------------------|

Verse 1

CE7Man anybody fly this thinGsus2g?
  Gsus2
 |-------------------------------------------|
 |------6---63---31---1----------------------|
 |----7---7-----4-----2---0-----------0-0----|
 |-------------------------------0--2--------|
 |---------------------------0h2-------------|
 |-------------------------------------------|

Eamj7

E7M

E7M

BGsus2efore my head explodes, Before my head starts to ring,
  Gsus2
 |-------------------------------------------|
 |------6---63---31---1----------------------|
 |----7---7-----4-----2---0-----------0-0----|
 |-------------------------------0--2--------|
 |---------------------------0h2-------------|
 |-------------------------------------------|

E7M

E7M

WGsus2e've been living life, inside a bubble,
  Gsus2
 |-------------------------------------------|
 |------6---63---31---1----------------------|
 |----7---7-----4-----2---0-----------0-0----|
 |-------------------------------0--2--------|
 |---------------------------0h2-------------|
 |-------------------------------------------|
B6 We've been living life inside a bubCadd9ble, Gsus2
  Gsus2
 |-----------------------------------------------|
 |------6---63---31---1--------12----12----------|
 |----7---7-----4-----2---0--/12----12----12-----|
 |-----------------------------------------------|
 |-----------------------------------------------|
 |-----------------------------------------------|

Chorus

B6

E

Csus2

F

B6

E And confidence in you, is confidence in me,

Csus2

IFs conGadd9fidence in hi - igh speed

B6

E

Csus2

F

B6

E

  Csus2

F

|-----------------------------------------------|-----------------------------------------------| |----3----------3-----------5----------5--------|----3----------3-----------5----------5--------| |------0---0------0---0-------0---0------0---0--|------0---0------0---0-------0---0------0---0--| |--3-----3----3-----3-----5----------5-----5----|--3-----3----3-----3-----5----------5-----5----| |-----------------------------------------------|-----------------------------------------------| |-----------------------------------------------|-----------------------------------------------|

Verse 2

Similar lead but with a few notes played over the Ebmaj7's, they should be easy to work out CE7Man anybody stop this thiGsus2ng?

E7M

E7M

E7M

BGsus2efore my head explodes, before my head starts to ring,

Eamj7

E7M

WGsus2e've been living life inside a bubble, WB6e've been living life inside a bubCadd9ble, Gsus2

Chorus 2

Again similar lead

B6

E

Csus2

F

B6

E And confidence in you, is confidence in me,

Csus2

IFs conGadd9fidence in hi - igh speed, In high speed, high speed In high speed, high speed

Outro

Play the intro riff over this

B6

E

Csus2

AFnd high speed you want, High speed you want, HCadd9igh speed you want, HGsus2igh speed you want, *Gsus2 held till fade* 9. We Never Change Chords used:

Fm11

E6 Bmadd11

Asus2 Cm7 Dsus2

B0 0 0 0 0 0 0 2

0 2 3 5 5 3 2 4 2 1 4 4 4 2 2 4 4 2 4 2 2 0 0 4 4 2 2 0 4 x x 2 2* 0 x x x x x x 6/8 time (mostly)

Fm11

E6 Fm11

E6 I wanna live

Fm11

E6 Fm11

E6 | .. | X2

life etc IBmadd11 wanna flyFm11... E6

Asus2

WeCm7 never change, do we? We never learn, do we? I Bmadd11wanna Fm11live in a wooden house E6 Making...

Outro

IBmadd11 wanna lFm11ive in a wE6ooden hBmadd11ouse where

Bmadd11 Fm11

Dsus2

D7M9

mBaking more friends would be ea_____________sy__ IBmadd11 wanna lFm11ive where the sE6un comes dBmadd11own Often, playing an F#m11, this appears:

E

G-B|-2--(2)-|
D-|-4--(4)-|
A-|-4--(4)-|
E-|-0-h-2--|
10. Everythings not lost Tab notes: -Rhythm guitar arranged for a piano part. -Lead guitar measures in parentheses -Rhythm and lead guitar measures separated by one space -Lead guitar uses slide -Some notes on 6th string played with thumb -Let these notes ring when you play them

Verse 1

When I counted....demons
e|--0------------------------------------------------|
B|--0-----------0-----------3------------------------|
G|--1-----------1-----------3------------------------|
D|--2-----------3-----------2------------(Repeat 3x)-|
A|---------------------------------------------------|
E|--0-----------1-----------2------------------------|
Drove the other ones away
e|--0-----------------------0------------------------|
B|--2-----------------------0---------------------0--|
G|--2-----------------------1-------------------1----|
D|--------------------------2-----------------2------|
A|--2-----------------------2------------------------|
E|---------------------------------------------------|
So if you ever.....neglected
e|--0-----------0-----------0-----------------0------\-|
B|--0-----------0-----------0-----------3-------3------| \
G|--1-----------1-----------1-----------3---------3-0--|  \
D|--2-----------1-----------0-----------2--------------|   \
A|--2--------------------------------------------------|
E|--------------------------------------2--------------|  Rhythm and lead
                                                       played together
(e|---------------------------------------------------|
(B|-5-------------------------------------------------|
(G|---------------------------------------------------|   /
(D|---------------------------------------------------|  /
(A|---------------------------------------------------| /
(E|---------------------------------------------------|/
If you think all...lost
e|--0-----------0-----------0-----------0---------0--|
B|--0-----------0-----------0-----------0------2--0--|
G|--1-----------1-----------1-----------2------2--4--|
D|----2---------1-----------0----------------2-------|
A|--------------------------------------4--4---------|
E|---------------------------------------------------|
 B
 G
(D|--------------------------(slow slide/bend)-------)

A

E

I'll be counting..
e|--0-----------0-----------0-----------0------------|
B|--0-----------0-----------0-----------0------------|
G|--1-----------1-----------1-----------2------------|
D|--2-----------1-----------0------------------------|
A|--------------------------------------4------------|
E|---------------------------------------------------|

B

G

D

A

E

hoping everything..
e|--------------------0-----0-------------------------|
B|--------------------2-----0-------------------------|
G|--2-----------------2-----1-------------------------|
D|--2-----------------------2-------------------------|
A|--4-----------------2-------------------------------|
E|--------------------------0-------------------------|

B

G

D

A

E

Instrumental verse

Repeat 4x)
e|--0-----0-----0-----------0-----0-----0-------------|
B|--0-----0-----0-----------3-----3-----2-------------|
G|--1-----1-----1-----------4-----4-----2-------------|
D|--2-----2-----0-----------0-----0-----0-------------|
A|--2-----------2-------------------------------------|
E|--0-----------0-----------3-----------2-------------|
(e|-12-12-12-12-12-12-------12-12-12-12-12-12-[16,17]) [2nd time around]

B

G

D

A

E

Verse 2

When you thought
e|-------------------------------------------0-------|
B|--0-----------0-----------3------------------3-----|
G|--1-----------1-----------3--------------------3---|
D|--2-----------3-----------2----------------------0-|
A|--2------------------------------------------------|
E|--0-----------1-----------2------------------------|
e|--0----------------------------------------0--------|  \
B|--0-----------0-----------3------------------3------|   \
G|--1-----------1-----------3--------------------3----|    \
D|----2---------3-----------2----------------------0--|
A|----------------------------------------------------|
E|--0-----------1-----------2-------------------------|
                                                        Play 2x
(e|-------------11----------12-----------------------)  omit 0-3-3-3-|
(B|-9----------------------------------------------------------------|  riff 2nd time
(G|------------------------------------------------------------------|
(D|------------------------------------------------------------------|   /
(A|------------------------------------------------------------------|  /
(E|------------------------------------------------------------------| /
don't you let it drag you down
e|--0-----------------------0------------------------|
B|--2-----------------------0---------------------0--|
G|--2-----------------------1-------------------1----|
D|--------------------------2-----------------2------|
A|--2------------------------------------------------|
E|--------------------------0------------------------|
if you ever feel..
e|--0-----------0-----------0-----------------0-------|
B|--0-----------0-----------0-----------3-------3-----|
G|--1-----------1-----------1-----------3---------3-0-|
D|--2-----------1-----------0-----------2-------------|
A|--2-------------------------------------------------|
E|--------------------------------------2-------------|

B

G

D

A

E

if you think
e|--0-----------0-----------0-----------0---------0--|
B|--0-----------0-----------0-----------0------2--0--|
G|--1-----------1-----------1-----------2------2--4--|
D|----2---------1-----------0----------------2-------|
A|--------------------------------------4--4---------|
E|---------------------------------------------------|

B

G

D

A

E

i'll be counting up...
e|--0-----------0-----------0-----------0------------|
B|--0-----------0-----------0-----------0------------|
G|--1-----------1-----------1-----------2------------|
D|--2-----------1-----------0------------------------|
A|--------------------------------------4------------|
E|---------------------------------------------------|

B

G

D

A

E

hoping everthing's not lost
e|--------------------0-----0-------------------------|
B|--------------------2-----0-------------------------|
G|--2-----------------2-----1-------------------------|
D|--2-----------------------2-------------------------|
A|--4-----------------2-------------------------------|
E|--------------------------0-------------------------|

B

G

D

A

E

Instrumental verse

Repeat 4x)
e|--0-----0-----0-----------0-----0-----0-------------|
B|--0-----0-----0-----------3-----3-----2-------------|
G|--1-----1-----1-----------4-----4-----2-------------|
D|--2-----2-----0-----------0-----0-----0-------------|
A|--2-----------2-------------------------------------|
E|--0-----------0-----------3-----------2-------------|
(e|-12-12-12-12-12-12-------12-12-12-12-12-12-[16,17]) [2nd time around]

B

G

D

A

E

Bridge

If you ever feel.. if you think that..
e|--0-------------------------------------------------|
B|--0-------------------------------------------------|
G|--1-------------------------------------------------|
D|--2-----------1-----------0-----------(Repeat 2x)---|
A|----------------------------------------------------|
E|--0-----------0-----------0-------------------------|
i'll be counting up...
e|--0-----------------------------------0-------------|
B|--0-----------------------------------0-------------|
G|--1-----------------------------------2-------------|
D|--2-----------1-----------0-------------------------|
A|--------------------------------------4-------------|
E|--0-----------0-----------0-------------------------|

B

G

D

A

E

hopin everything's not lost
e|--------------------0-----0-------------------------|
B|--------------------2-----0-------------------------|
G|--2-----------------2-----1-------------------------|
D|--2-----------------------2-------------------------|
A|--4-----------------2-------------------------------|
E|--------------------------0-------------------------|

B

G

D

A

E

Outro

Singin'out oh yea.....
e|--4-----4-----4-----4-----4-----4-----5-----5-------|
B|--0-----0-----0-----0-----0-----0-----0-----0-------|
G|--1-----1-----1-----1-----1-----1-----2-----2-------|
D|--2-----2-----2-----2-----0-----0-------------------|
A|--------------------------------------4-----4-------|
E|----------------------------------------------------|
Repeat 4 times
e|--0-----0-----0-----------0-----0-----0-------------|
B|--0-----0-----0-----------3-----3-----2-------------|
G|--1-----1-----1-----------4-----4-----2-------------|
D|--2-----2-----0-----------0-----0-----0-------------|
A|--2-----------2-------------------------------------|
E|--0-----------0-----------3-----------2-------------|
(e|-12-12-12-12-12-12-------12-12-12-12-12-12-[16,17]) [2nd time around]

B

G

D

A

E

Repeat 4 times
e|--0-----0-----0-----0-----2-----2-----2-----2-------|
B|--0-----0-----0-----0-----3-----3-----3-----3-------|
G|--1-----1-----1-----1-----2-----2-----2-----2-------|
D|--2-----2-----2-----2-----4-----4-----4-----4-------|
A|--2-----2-----2-----2-----2-----2-----2-----2-------|
E|--0-----0-----0-----0-------------------------------|

B

G

D

A

E

e|--4-----4-----4-----4-----4-----4-----4-----4-------|
B|--2-----2-----2-----2-----2-----2-----2-----2-------|
G|--2-----2-----2-----2-----2-----2-----2-----2-------|
D|----------------------------------------------------|
A|----------------------------------------------------|
E|--2-----2-----2-----2-----2-----2-----2-----2-------|

B

G

D

A

E

e|--0-----0-----0-----0-----2-----2-----2-----2-------|
B|--0-----0-----0-----0-----3-----3-----3-----3-------|
G|--1-----1-----1-----1-----2-----2-----2-----2-------|
D|--2-----2-----2-----2-----4-----4-----4-----4-------|
A|--2-----2-----2-----2-----2-----2-----2-----2-------|
E|--0-----0-----0-----0-------------------------------|

B

G

D

A

E

e|--4-----4-----4-----4-----4-----4-----4-----4-------|
B|--2-----2-----2-----2-----2-----2-----2-----2-------|
G|--2-----2-----2-----2-----2-----2-----2-----2-------|
D|----------------------------------------------------|
A|----------------------------------------------------|
E|--2-----2-----2-----2-----2-----2-----2-----2-------|

B

G

D

A

E

e|--0-----------------------2-------------------------|
B|--0-----------------------3-------------------------|
G|--1-----------------------2-------------------------|
D|--2-----------------------4-------------------------|
A|--------------------------2-------------------------|
E|--0-------------------------------------------------|
e|---4------------------------------------------------|
B|---2------------------------------------------------|
G|---2------------------------------------------------|
D|----------------------------------------------------|
A|----------------------------------------------------|
E|---2------------------------------------------------|
e|---0------------------------------------------------|
B|---0------------------------------------------------|
G|---1------------------------------------------------|
D|---2------------------------------------------------|
A|----------------------------------------------------|
E|---0------------------------------------------------|
A = x02220 | Fm7 = 242222 | E6sus4 = 022220 | E = 022100 | D = xx0232 | Bm7 = x24232 | Asus4 = x02230 | E7 = 022130 | D5 = xx023x | D7M9 = xx0220 |

Verse 1

A

Fm7 E6sus4

E D Bm7

  A    Asus4   A
 |---------------------------|----------------------------|
 |----2------2------2----0---|----3------3------2--3--2---|
 |----2------2------2----1---|----2------2------2--2--2---|
 |---------------------------|--0-------------------------| x4
 |--0------------------------|------4--2---2--0-------0---|
 |------4--2---2--0----0-----|----------------------------|
Now I never meant to do you wrong, Thats what I came here to say, But if I was wrong then I'm sorry, But don't let it stand in our way, 'Cause my head just aches when I think of, The things that I shouldn't have done, But life is for living we all no, And I don't want to live it alone.

Break

SEing ah E7ah ah, SD5ing ah D7M9ah ah, AEnd you E7sing ah ah ah,

Outro

A

Fm7 E6sus4

E D Bm7

  A    Asus4   A
 |---------------------------|----------------------------|
 |----2------2------2----0---|----3------3------2--3--2---|
 |----2------2------2----1---|----2------2------2--2--2---|
 |---------------------------|--0-------------------------| x2
 |--0------------------------|------4--2---2--0-------0---|
 |------4--2---2--0----0-----|----------------------------|