Cranberries - Free To Decide Chords

Main Riff
Main Riff
 
         
         
         
         
         
3
2
4
3 fr
         
         
         
         
         
1
3
4
2
1
1
         
         
         
         
         
2
1
3
4
3 fr
         
         
         
         
         
X
X
3
2
1
1
5 fr
         
         
         
         
         
X
X
1
3
4
3
7 fr
         
         
         
         
         
X
4
3
1
2
1

10 fr
         
         
         
         
         
X
1
2
3
4
X
10 fr
         
         
         
         
         
X
1
3
3
3
1
12 fr
         
         
         
         
         
3
2
1
1
1
4
         
         
         
         
         
X
3
2
1
3 fr
         
         
         
         
         
X
1
2
3
4
1
8 fr
         
         
         
         
         
1
3
4
2
1
1
3 fr
         
         
         
         
         
X
1
X
3
4
1
5 fr
         
         
         
         
         
3
2
1
1
1
4
10 fr
         
         
         
         
         
X
X
1
3
4
3

12 fr
         
         
         
         
         
X
4
3
1
2
1
3 fr
         
         
         
         
         
X
         
         
         
         
         
X
2
3
1
5 fr
         
         
         
         
         
1
3
4
1
1
1
5 fr
         
         
         
         
         
X
X
1
1
1
8 fr
         
         
         
         
         
X
3
2
4
1
2 fr
         
         
         
         
         
X
1
4
4
4
7 fr
         
         
         
         
         
X
1
3
4
2

9 fr
         
         
         
         
         
X
4
3
1
2
X
12 fr
         
         
         
         
         
X
1
3
4
2
1
5 fr
         
         
         
         
         
X
         
         
         
         
         
3
4
2
1
3 fr
         
         
         
         
         
1
1
2
3
4
1
5 fr
         
         
         
         
         
X
X
1
1
1
4
3 fr
         
         
         
         
         
1
X
X
3
4
X
7 fr
         
         
         
         
         
1
3
4
2
1
1
         
         
         
         
         
X
2
1
X
3
         
         
         
         
         
X
1
4
4
4
X
         
         
         
         
         
X
1
3
3
3
1
4 fr
         
         
         
         
         
4
3
1
1
1
X
4 fr
         
         
         
         
         
3
2
1
1
1
4

9 fr
         
         
         
         
         
X
X
1
3
4
3
11 fr
         
         
         
         
         
X
4
3
1
2
1
No chord
Standard guitar tuning:
E
A
D
G
B
E
No capo
    G                 C                 Am                Am
E|--3-3-3--3-3-33--|--0-0-0--0-0-00--|--0-0-0--0-0-00--|--0-0-0--0-0-00--|
B|--3-3-3--3-3-33--|--1-1-1--0-0-00--|--1-1-1--0-0-00--|--1-1-1--0-0-00--|
G|--0-0-0--0-0-00--|--0-0-0--0-0-00--|--2-2-2--2-2-22--|--2-2-2--2-2-22--|
D|--0-0-0--0-0-00--|--2-2-2--0-0-00--|--2-2-2--0-0-00--|--2-2-2--0-0-00--|
A|--2-2-2--0-0-00--|--3-3-3--3-3-33--|--0-0-0--0-0-00--|--0-0-0--0-0-00--|
E|--3-3-3--3-3-33--|-----------------|-----------------|-----------------|
Electic Guitar 1 (Dolores) - solo (mild distortion)
    G                 C                 Am                Am
E|-----------------|---------3-3-55--|--7-7-7--5-5-55--|--7-7-7--5-5-3---|
B|-------------33--|--5-5-5----------|-----------------|-----------------|
G|--4-4-4--5-5-----|-----------------|-----------------|-----------------|
D|-----------------|-----------------|-----------------|-----------------|
A|-----------------|-----------------|-----------------|-----------------|
E|-----------------|-----------------|-----------------|-----------------|
Electric Guitar 2 (Noel) - verse and solo (clean), chorus (distortion)
    G                 C                 Am                Am
E|--3-3-3--3-3-33--|--0-0-0--0-0-00--|--5-5-5--5-5-55--|--5-5-5--5-5-55--|
B|--3-3-3--3-3-33--|--0-0-0--0-0-00--|--5-5-5--5-5-55--|--5-5-5--5-5-55--|
G|--4-4-4--4-4-44--|--7-7-7--7-7-77--|--5-5-5--5-5-55--|--5-5-5--5-5-55--|
D|--5-5-5--5-5-55--|--0-0-0--0-0-00--|--7-7-7--7-7-77--|--7-7-7--7-7-77--|
A|--5-5-5--5-5-55--|--0-0-0--0-0-00--|--7-7-7--7-7-77--|--7-7-7--7-7-77--|
E|--3-3-3--3-3-33--|--8-8-8--8-8-88--|--5-5-5--5-5-55--|--5-5-5--5-5-55--|
0's are 10's

G

Subject: TAB: Free To Decide by the Cranberries Key:

G

Intro

G C Am Am

Verse

ItG's not worth anythingC more than this at aAmll I'Gll live as I choose or IC will not live at aAmll SoG return to where youC/G come from, retAmurn to where you dwell BeGcause harassment's Cnot my forte, butAm you do it very well

Chorus

BuGt I'm freeC/G to decide, I'Amm free to decide, AnGd I'm not soC suicidal afteAmr all. I'Gm free to C/Gdecide, I'm frAmee to decide AnGd I'm not soC suicidal afteAmr all. You must have nothing more with your time to do There's a war in Russia and Sarajevo too So to hell with what you're thinking And to hell with your narrow mind Your so distracted from the real things You should leave your life behind

B

Solo

|----------------------------------------------------------------------
|-0-0-0-1--3--3-5-5-5-8--8--10-10h12-12-10--12--10-10h12-12-10--12--10-
|----------------------------------------------------------------------
|----------------------------------------------------------------------
|----------------------------------------------------------------------
|----------------------------------------------------------------------
|---------------------------------------------------12-12-12-10--12--10-
|-0-0-0-1--3--3-5-5-5-8--8-8-10-10h12-12-10--12--10-12-12-12-10--12--10-
|-----------------------------------------------------------------------
|-----------------------------------------------------------------------
|-----------------------------------------------------------------------
|-----------------------------------------------------------------------
|-12-12-12-10--12--10-
|-12-12-12-10--12--10-
|---------------------  4X
|---------------------
|---------------------
|---------------------
|---------------------------------------------------12-12-12-10--10--10-10-
|-0-0-0-1--3--3-5-5-5-8--8-8-10-10h12-12-10--12--10-12-12-12-10--10--10--0-
|------------------------------------------------------------------------0-
|--------------------------------------------------------------------------
|--------------------------------------------------------------------------
|--------------------------------------------------------------------------